» » »

Cherry Bass tabs (ver.2)

Artists:  A B C D E F G H I J K L M N O P Q R S T U V W X Y Z # 

Cherry Bass tabs (ver.2)

Smashing Pumpkins
Rating:
0/5 (0 votes)

Hard to play? Try these video lessons and learn fast.
                ================================================================================
                       S M A S H I N G   P U M P K I N S

                                       -

                                  C H E R R Y
================================================================================


                             THE AEROPLANE FLIES HIGH
                                  [1979 Single]
                           (c) Virgin Records - 1996


                          Tune Down a 1/2 Step, then Drop D
                                    C# G# C# F#

                                 Tempo = 106 BPM
                               Time Signature = 4/4



                          -----------------------------

                                 PADDY MCMULLAN

                                   Version 1.0
                                17th  March 2009

                                  For Andrea C.
                             -----------------------

                             Tablature Symbols Used:


 p         -  Pull-Off
 h         -  Hammer-On
 (/)       -  Legato Slide (Blank space indicates length of slide)
 \         -  Slide Down to/Down From (Blank space indicates length of slide)
 /         -  Slide Up To/Up From (Blank space indicates length of slide)
 ( )       -  Ghost Note/Tied Note/Implied Note
 REST      -  Rest and sustain rest for duration of blank space


                                   -----------
                                   Song Notes:
                                   -----------

  Contrary to popular belief, the main riffs of this song are played on bass,
                                   not guitar.


================================================================================
Intro Fumble: Play once, then rest for 3 bars
================================================================================


* Let notes ring wherever possible *


||-- /11--------11-----R-    -||
||-----------0------0--E-    -||
||---------------------S-    -||
||-- /9---9------------T-    -||



================================================================================
Riff 1 [Verse/Pre-Chorus 1]: Play 16 times
================================================================================


* Let notes ring wherever possible *


||-------11--------11-----(11 \|  9)----9--------7-----7--| |
||--9--------9--0------0-------|--7--------7--5-----5--- /|*|
||-----------------------------|--------------------------|*|
||-----------------------------|--------------------------| |



================================================================================
Chorus: (Play once)
================================================================================


* Let notes ring wherever possible *


||-- /11----11-------11--------|-------------------------|
||----------------0------------|-------------------------|
||-----------------------0--0--|-(0)-0-------------------|
||-----------------------------|--------0--2----2--2--0--|


|--11----11-----(11\9)-----6--|-(6)-6-------------------|
|------------0-------------7--|-(7)-7-------------------|
|--------------------------0--|-(0)---------------------|
|-----------------------0-----|--------0--2----2--2--0--|


|-- /11----11----11--11--------|-----6-------------------|
|------------------------------|-------------------------|
|------------------------0--0--|-(0)---------------------|
|------------------------------|--------0--2----2--2--0--|


|-----------------------6--|-(6)-----------------||
|--------------------------|---------------------||
|--------------------------|---------------------||
|--0----0--0--0--(0/7)--7--|-(7)--------------0--||



================================================================================
Play Riff 1 seven 7 times
================================================================================

================================================================================
Riff 2 [Variation of Riff 1]: Play 8 times
================================================================================


* Let notes ring wherever possible *


||---------11--------11----- \  | -(9)----9--------7------| |
||-- /9--------9--0-------------|---7--------7--5---------|*|
||------------------------------|-------------------------|*|
||------------------------------|-------------------------| |



On the fifth repeat, play the following instead, returning to the main riff
afterwards to complete this section (notice the extra G note at the end):


||---------11--------11----- \  | -(9)----9--------7-------||
||-- /9--------9--0-------------|---7--------7--5-----5----||
||------------------------------|--------------------------||
||------------------------------|--------------------------||



================================================================================
Play the Chorus once, replacing the last two bars with the following:
================================================================================


* Let notes ring wherever possible *


||--11----------11--11-----6--|-(6)--------------------||
||----------------------------|------------------------||
||----------------------------|------------------------||
||--0----0--0---0---(0/7)--7--|-(7)-----2--2--2--2--2--||



================================================================================
Outro: Play 7 times until fade
================================================================================


* Let notes ring wherever possible *


||---------11--------11-----11 \ | -(9)----9-----------------| |
||-- /9--------9--0------0-------|---7--------7--------------|*|
||-------------------------------|---------------------------|*|
||-------------------------------|---------------2--2--2--2--| |



================================================================================
End
================================================================================


Tab summary:        Intro x 1
                    Riff 1 x 16
                    Chorus x 1
                    Riff 1 x 7
                    Riff 2 x 8
                    Chorus x 1
                    Outro x 7

                    END
            
Hard to play? Try these video lessons and learn fast. | Correct




comments powered by Disqus
↑ Back to top | Tablatures and chords are parodies/interpretations of the original songs. You may use it for private study, scholarship, research or language learning purposes only