>
 >
Bury Me

Bury Me Bass Tabs

Smashing Pumpkins - Bury Me chords, tabs, tablatures, lyrics

Guitar lessons | Add/correct | Request | Top 50 tabs Artists:  A B C D E F G H I J K L M N O P Q R S T U V W X Y Z 0-9

Bury Me Bass Tabs – Smashing Pumpkins

CD, Sheet music, Poster

Do you like Bury Me? Share with your friends now
Bass TabsTabsTabs v2
Tuning: E A D G

Song starts with some kind of noise, then this bass solo:
Riff 1
G|-----------------------------|
D|-----------------------------|
A|3-5--5-5-5--5-------------3--|
E|--------------1--3--3-5-5----|

Play this untill Billy comes in then hold the D

Then Play:
Riff 2
G|-------------------------------|
D|-------------------------------|
A|-------------------------------|
E|5-5-5h4--4-4-4-5-5-5h4--4-4-4--|

Go back to Riff 1

Then as the solo comes in hold an A, then go and play
Riff 1 some more.

When he says "Some Things you just can't hide" play:
Riff 3
G|--------------|
D|--------------|
A|0--0--0-3-----|
E|-----------1--|

"Why Won't you come outside" play Riff 1 but have the last note a D.

Then play:
G|-----------------------|
D|-----------------------|
A|5----3----2----1----0--|
E|-----------------------|

And for the big finish:
G|-----------------|
D|-----------------|
A|-----------------|
E|1--1-1h3--3-3-3--|

play that many times then end on an F

--------------
Tab was made by: Nathan Amber, take it if you want it...just enjoy..
hope you like it!! E-mail me if you have a better way of playing it!





Comments


Popular Smashing Pumpkins tabs & chords
Adore Bass Tabs
Glow Bass Tabs
Disarm Chords
Mayonaise 4 Chords
Czarina Tabs
Eye 2 Tabs
Glynis 1 Tabs
Jupiter's Lament Tabs
Stand Inside Your Love 4 Tabs
Innosense Ukulele


Song lyrics



↑ Back to top | Tablatures and chords are parodies/interpretations of the original songs. You may use it for private study, scholarship, research or language learning purposes only
© 2014 AZChords.com Contact us | Privacy policy | DMCA | Add/correct tabs | Request tabs | Top 50 tabs