» » »

Smashing Pumpkins, Bullet Wth Butterfly Wings Bass tabs (ver.1)

Artists:  A B C D E F G H I J K L M N O P Q R S T U V W X Y Z # 

Bullet Wth Butterfly Wings Bass tabs (ver.1)

Smashing Pumpkins Tabs
Rating:
0/5 (0 votes)
Bullet Wth Butterfly Wings lessons Tabs too difficult? Try these video lessons and learn fast
                This is an easy song
Tune Bass to Eflat

Verse Part 1

G|-----------------|
D|-----------------|
A|2-2-0-2-------|
Eb|-------3--0---|

Vesre Part 2

G|--------------|
D|--------------|
A|--------------|
Eb|-0--3--3--|

Chours Part 1
play this at the despite all my rage..........

G|--------------------------------|
D|---------------------------------|
A|2-2-0-----5-55--------------|
Eb|-----3-33-----555--0-h3-|

Chours Part 2
play this at what someone will say..........

G|-----------------------------------------|
D|-----------------------------------------|
A|2-2-0-----5-55-----------------------|
Eb|-----3-33----555-000-3-333-5-|

Bridge

G|---------------------|
D|---------------------|
A|-----2-------5------|
Eb|-333---555-----|

Outro

G|---------------------------------|
D|---------------------------------|
A|2-2-0------5-55--------------|
Eb|-----3-33------5-55-3-h2-|

thats mainly it i don't know the part where it gets real silent 
            

comments powered by Disqus
↑ Back to top | Smashing Pumpkins Bass for Bullet Wth Butterfly Wings. Lyrics for acoustic guitar and electric guitar. Tablatures and chords are parodies/interpretations of the original songs. You may use it for private study, scholarship, research or language learning purposes only