» » »

Smashing Pumpkins, Bullet With Butterfly Wings Tabs (ver.6)

Artists:  A B C D E F G H I J K L M N O P Q R S T U V W X Y Z # 

Bullet With Butterfly Wings Tabs (ver.6)

Smashing Pumpkins Tabs
 Rating:
4/5 (4 votes)
Bullet With Butterfly Wings lessons Tabs too difficult? Try these video lessons and learn fast
1
                (Live)
-------------------------------------------------------------------------------
-------------------------------------------------------------------------------

Tuning: 1/2 Down

This is one strange song, it's all jungle like with bird noises and stuff.It's 
nothing like the recording, or other live
songs they've done in the past.Pretty much it's them jamming along to the basics 
of the song and singing the chorus every now and then.
 It's really messy and mostly improvisation so slide up and down the fret board 
alot and mute and harmonic pinch to add effect. If i tabbed out every slide and
every bit of feedback in here it would be a mile long haha. 
I've tabbed the main part of the song from James and Billy enough to be able to 
play along to 90% of the song.The intro is different too the B chord is played 
alittle differently.
This is recorded from the secret gig from the Sydney shipping terminal 98' this is 
similar to most recordings from the adore
tour in 98'


Drums 0:00 - 0:30
|--------------------|
|--------------------|
|--------------------|
|--------------------|
|--------------------|
|--------------------|

Billy 0:30
|----------------------------------------------------------------|
|----x--xxx--x---------------------------------------------------|
|----x--xxx--x---------------------------------------------------|
|----x--xxx--x---------------------------------------------------|
|--\-x--xxx--x---<3>---<4>-<5>---<7>---<9>--<12>---<15>---<17>---|
|--\-x--xxx--x---<3>---<4>-<5>---<7>---<9>--<12>---<15>---<17>---|

Billy:0:42
|---------------------------------|
|---------------------------------|
|---------------------------------|
|---------------------------------|
|--12\2------------<3>-<3>-<3>----|
|--12\2------------<3>-<3>-<3>----|

Billy0:51
|-------------------------------------------------------------|
|-------------------------------------------------------------|
|-------------------------------------------------------------|
|--0-0---------------------------------0-0--------------------|
|--2-2----0-0---\/-1h2-h1--1h2-h1------2-2----0-0-------------|
|---------5-5---\/----------------------------5-5-/7h8-/7h8---|

James:0:51
|--------------------------------------------------|
|--------------------------------------------------|
|--------------------------------------------------|
|-4-4----------------------------------4-4---------|
|-2-2-----7-7--------------------------2-2----7-7--|
|---------5-5---------------------------------5-5--|


Billy:1:06                                             1.28
|-----------------------------------------------------------|
|-----------------------------------------------------------|
|--4-4-------------4----------------------------------------|
|--4-4-----13-13---4--7-7-----------------------------------|
|--2-2-----13-13---2--7-7---1-------------2-----------------|
|----------11-11------5-5-----1-1-0-/5\----3-3-0-----/8h7---|

James:1:03                                           1.30
|------------------------------------------------------------|
|------------------------------------------------------------|
|------------------4----------------------------------12~\11~|
|--4-4-----13-13---4--7-7-----------------------------x--\x--|
|--2-2-------------2--7-7-----------------------------10~\9~-|
|----------11-11------5-5------------------------------------|



Billy:1:36
|-------------------------------------------|
|-------------------------------------------|
|----------------------------4-4-4-4--------|X 7    
|----------------------------4-4-4-4--------|       
|\----0h2-0h2------------0---0-0-0-0--------|       
|\-----------3~~~h0-000--0---x-x-x-x--------|

                                                                                          
James:1:45                                   
|-------------------------------------------|
|-------------------------------------------|
|----4-4-4-4-----------------4-4-4-4--------|X4
|----4-4-4-4-----------------4-4-4-4--------|
|----0h2-0h2-0------------0--0-0-0-0--------|
|----x-x-x-x-3~~-h0~000---0--x-x-x-x--------|


Billy:2.04
|-------------------------------------------|
|-------------------------------------------|
|----------------------------4-4-4-4--------|   
|----------------------------4-4-4-4--------|       
|\----0h2-0h2------------0---0-0-0-0--------|       
|\-----------3~~~h0-000--0---x-x-x-x--------|

                                             
                                             
James:2.04                              
|------------------------------|
|------------------------------|
|----4-4-4-4-------------------|
|----4-4-4-4-4--\4\3h0---------|
|----0h2-0h2-4--\4\3h0---------|
|----x-x-x-x-3~~\2\1h0---------|






2:16 The World Is a Vampire
|--------------------|
|--------------------|
|--------------------|
|--------------------|
|--------------------|
|--------------------|


2:43 Billy: Even Though I Know ...  Like Them Drugs
|----------------------------------------------------------------|
|----------------------------------------------------------------|
|----1-1-1-------------------------1-1-1-------------------------| X4
|----2-2-2-5-5-5/-7-7-7---7-xx-7---2-2-2-5-5-5\-7-7-7---7-xx-7---|
|--\-2-2-2-5-5-5/-7-7-7---7-xx-7---2-2-2-5-5-5\-7-7-7---7-xx-7---|
|--\-0-0-0-3-3-3/-5-5-5---5-xx-5---0-0-0-3-3-3\-5-5-5---5-xx-5---|

James:2:43
|----------------------------------------------------------------|
|----------------------------------------------------------------|
|----------------------------------------------------------------| X4
|---5-5-5/-7-7-7/-9-9-9------------5-5-5/-7-7-7/-9-9-9---7-xx-7--|
|----------------------------------------------------------------|
|---3-3-3/-5-5-5/-7-7-7------------3-3-3/-5-5-5/-7-7-7---5-xx-5--|



3:02 Dispite All My Rage I Am Still Just A Rat In A Cage
|--------------------|
|--------------------|
|--------------------|
|--------------------|
|--------------------|
|--------------------|

3:06
|-------------------------------------------|
|-------------------------------------------|
|----------------------------4-4-4-4--------| 
|----------------------------4-4-4-4--------|      
|\----0h2-0h2------------0---0-0-0-0--------|       
|\-----------3~~~h0-000--0---x-x-x-x--------|
James:1:45
|-------------------------------------------|
|-------------------------------------------|
|----4-4-4-4-----------------4-4-4-4--------| 
|----4-4-4-4-----------------4-4-4-4--------|
|\---0h2-0h2-0------------0--0-0-0-0--------|
|\---x-x-x-x-3~~-h0~000~--0--x-x-x-x--------|


This part Billy and James go into a strange jam and D'acy rest keep playing Billy plays this part
over and over while James goes nuts on his wah wah pedal, to the extent you can barely hear the
hammer on's lol. 



Billy3:16
|--------------------------------------------------------------------|
|--------------------------------------------------------------------|
|--4-4-4-4-4-4---16~17bfull--18h19-19h20-20bfull---15b-15b-15b/12~---|X3
|--------------------------------------------------------------------|
|--------------------------------------------------------------------|
|--------------------------------------------------------------------|

James:3:20 Wah pedal
|-----------------------------------------------------------------------------------------|
|-----------------------------------------------------------------------------------------|
|-----------------------------------------------------------------------------------------|
|-----------------------------------------------------------------------------------------|x3
|-----------------------------------------------------------------------------------------|
|--5h7-5h7-5h7-5h7-7/10--5h7-5h7-5h7-5h7-7/10--5h7-5h7-5h7-5h7-7/10--5h7-5h7-5h7-5h7-7/10-|
4th time go nuts with the wah pedal on 7th fret

Billy:4:13

|-----------------------------------------------------------------------------------------|
|-----------------------------------------------------------------------------------------|
|----1-1-1--------------------1-1-1---------------------------1-1-1-----------------------|X4
|----2-2-2/-5-5-5/-7-7-7------2-2-2/-5-5-5/-7-7-7---7-xx-7----2-2-2/-5-5-5/-7-7-7---7-xx-7|
|--\-2-2-2/-5-5-5/-7-7-7------2-2-2/-5-5-5/-7-7-7---7-xx-7----2-2-2/-5-5-5/-7-7-7---7-xx-7|
|--\-0-0-0/-3-3-3/-5-5-5------0-0-0/-3-3-3/-5-5-5---5-xx-5----0-0-0/-3-3-3/-5-5-5---5-xx-5|

James:4:13
|-----------------------------------------------------------------------------------------|
|-----------------------------------------------------------------------------------------|
|-----------------------------------------------------------------------------------------| X4
|--\--5-5-5/-7-7-7/-9-9-9------5-5-5/-7-7-7/-9-9-9---9-xx-9---5-5-5\-7-7-7\-9-9-9---9-xx-9|
|-----------------------------------------------------------------------------------------|
|--\--3-3-3/-5-5-5/-7-7-7------3-3-3/-5-5-5/-7-7-7---7-xx-7---3-3-3\-5-5-5\-7-7-7---7-xx-7|




************************************

| (0) Ghost note "play softly" 
| /   slide up
| \   slide down
| h   hammer-on
| p   pull-off
| ~   vibrato
| +   harmonic
| x   Mute note
| b   Bend
| pb  Pre-bend
| br  Bend release
| pbr Pre-bend release
| brb Bend release bend

************************************

That's pretty much it... they go into a massive jam improvised solo thing then 
goes back to the Dispite All My Rage part.
This song is extremely improvised so go nuts, but the main part of the song is 
there enough to be able to play along
with it start to finish.


I noticed no one has put any tabs from the adore LIVE era up. So hopefully i'll 
get around to adding alot more. 
mail me too !!
            
Submit corrections

comments powered by Disqus
↑ Back to top | Smashing Pumpkins Tabs for Bullet With Butterfly Wings. Lyrics for acoustic guitar and electric guitar. 1 Tablatures and chords are parodies/interpretations of the original songs. You may use it for private study, scholarship, research or language learning purposes only