» » »

Smashing Pumpkins, Bullet With Butterfly Wings Bass tabs (ver.5)

Artists:  A B C D E F G H I J K L M N O P Q R S T U V W X Y Z # 

Bullet With Butterfly Wings Bass tabs (ver.5)

Smashing Pumpkins Tabs
Rating:
0/5 (0 votes)
Bullet With Butterfly Wings lessons Tabs too difficult? Try these video lessons and learn fast
                
okay this is how i figured out how to play what be the bst pumkins song out
there
so it goes like this

all guitaras tuned in Eflat

he says "THe world is a vampire"
g--------------------
d--------------------
a2-2-0-2----0-0--
e----------3-0------

do that about 6 times then you go 

g------
d-------
a2-2-2-2------
e----------0-0-0-3-3-3-3-3


then the chorus ("dispite all my rage...)

g---------------------------
d----------------------------
a2-2-0-----5-55----------
e-------3-33-----555-0-3

repeat first part 
then second time on chorus

g----------------------------------------
d-----------------------------------------
a2-2-0------5-55----------------------
e-------3-33------555-000-3-333-2-2-2-5-5-5-5

and the bridge goes like so

g--------------
d---------------
a---------2-2-2----
e--4-2-4--------2-0-2-5-5-5
and you end it on the chorus but on the last note it's a 2 on the e string
like so

g-----------------------------
d----------------------------
a2-20------5-55-
e------3-33------5-55--3-2

that's it 
any comments, questions, or corrections just e-mail me
I also know a hell of alot of Nirvana if you want them posted just mail me
too
            
Submit corrections

comments powered by Disqus
↑ Back to top | Smashing Pumpkins Bass for Bullet With Butterfly Wings. Lyrics for acoustic guitar and electric guitar. Tablatures and chords are parodies/interpretations of the original songs. You may use it for private study, scholarship, research or language learning purposes only