» » »

Smashing Pumpkins, Bullet With Butterfly Wings Bass tabs (ver.4)

Artists:  A B C D E F G H I J K L M N O P Q R S T U V W X Y Z # 

Bullet With Butterfly Wings Bass tabs (ver.4)

Smashing Pumpkins Tabs
 Rating:
4/5 (4 votes)
Bullet With Butterfly Wings lessons Tabs too difficult? Try these video lessons and learn fast
                tuning: down a half step (e flat, a flat, d flat, g flat)


verse
g|-------------------------------|
d|*-----------------------------*|
a|*2-2-0-2-2-------------0-0-0-0*| x7
e|-----------3-3-0-0-0-0---------|

g|-----------------------------|
d|*---------------------------*|
a|*2-2-2---------------0-0-0-0*| x5
e|-------0-0-0-3-3-3-3---------|

chorus
g|----------------------------------|
d|*--------------------------------*|
a|*2-2-0-------5-5-0-------/7-7-7--*| x4
e|-------3-3-0-------5-5-0--------3-|

verse again

chorus 2
g|----------------------------------|
d|*--------------------------------*|
a|*2-2-0-------5-5-0-------/7-7-7--*| x3
e|-------3-3-0-------5-5-0--------3-|

g|-----------------------|
d|-----------------------|
a|2-2-0-------5-5-0------| 
e|------3-3-0-------5-5-0|

break
g|-----------------|
d|*---------------*|
a|*---------------*| x4
e|-2-0-2-5-4-4-4-7-|

g|-----------------------|
d|*---------------------*|
a|*---------------------*| x7
e|-0-0-3-3-3-2-2-5-5-5-5-|

g|-------------------------------|
d|-------------------------------|
a|-------------------------------|
e|3-3-3-3-3-3-3-3-3-3-3-3-3-3-3-3|

chorus 3, no bass until final e to g (e flat to g flat) 

last chorus
g|--------|
d|--------|
a|/7-7-7--|
e|-------3|

g|-------------------------|
d|*-----------------------*|
a|*2-2-0-------5-5-0------*| x3
e|-------3-3-0-------5-5-0-|

g|-----------------------------------|
d|-----------------------------------|
a|2-2-2222----------5-5-5555---------|
e|---------3-3-3333----------5-5-5555|

g|-------------------------|
d|*-----------------------*|
a|*2-2-0-------5-5-0------*| x3
e|-------3-3-0-------5-5-0-|

g|-----------------------------------|
d|-----------------------------------|
a|2-2-2222----------5-5-5555---------|
e|---------3-3-3333----------5-5-5555|

g|-------------------------|
d|*-----------------------*|
a|*2-2-0-------5-5-0------*| x4
e|-------3-3-0-------5-5-0-|

g|----------|
d|----------|
a|/7-7-7----|
e|-------3-2|
            
Submit corrections

comments powered by Disqus
↑ Back to top | Smashing Pumpkins Bass for Bullet With Butterfly Wings. Lyrics for acoustic guitar and electric guitar. Tablatures and chords are parodies/interpretations of the original songs. You may use it for private study, scholarship, research or language learning purposes only