» » »

Bodies Tabs (ver.3)

Artists:  A B C D E F G H I J K L M N O P Q R S T U V W X Y Z # 

Bodies Tabs (ver.3)

Smashing Pumpkins
Rating:
0/5 (0 votes)

Hard to play? Try these video lessons and learn fast.
                
(((Its already in order)))

Tuning: Drop Db (low to high - Db Ab Db Gb Bb Eb)

I have a downloaded version of this song,
and its starts off with it a un-explainable noise and then I hear:

Intro?:
Eb|-----|
Bb|-----| This note kinda goes
Gb|-----| through all the chorus'.
Db|--7--| Sixteenth notes continously.
Ab|-----|
Db|-----|

Intro/Verse:  x8 (On the 3rd time, singing starts)
Eb|-------------------| or |---------------------------------|
Bb|-------------------|    |---------------------------------|
Gb|-------------------|    |---------------------------------|
Db|-3--3-3--3/7-7\2-2-|    |-3-3-3-3-3-3-3-3/7-7-7-7\2-2-2-2-|
Ab|-3--3-3--3/7-7\2-2-|    |-3-3-3-3-3-3-3-3/7-7-7-7\2-2-2-2-|
Db|-3--3-3--3/7-7\2-2-|	   |-3-3-3-3-3-3-3-3/7-7-7-7\2-2-2-2-|

Pre-Chorus: x4
Eb|---------------------------------|
Bb|---------------------------------|
Gb|---------------------------------|
Db|-2-2-2-2-2-2-2-2-0-0-0-0-5-5-5-5-|
Ab|-2-2-2-2-2-2-2-2-0-0-0-0-5-5-5-5-|
Db|-2-2-2-2-2-2-2-2-0-0-0-0-5-5-5-5-|

Chorus:
 - Guitar 1: x4
Eb|-------------------| or |---------------------------------|
Bb|-------------------|    |---------------------------------|
Gb|-------------------|    |---------------------------------|
Db|-3--3-3--3/7-7\2-2-|    |-3-3-3-3-3-3-3-3/7-7-7-7\2-2-2-2-|
Ab|-3--3-3--3/7-7\2-2-|    |-3-3-3-3-3-3-3-3/7-7-7-7\2-2-2-2-|
Db|-3--3-3--3/7-7\2-2-|	   |-3-3-3-3-3-3-3-3/7-7-7-7\2-2-2-2-|

- Guitar 2: x16 (continous sixteenth notes)
Eb|-12-12-12-12-|
Bb|--x--x--x--x-|
Gb|-10-10-10-10-|
Db|-------------|
Ab|-------------|
Db|-------------|

?Bridge?: x4
Eb|---------------------------------|
Bb|---------------------------------|
Gb|---------------------------------|
Db|-5-5-5-5-5-5-5-5-3-3-3-3-7-7-7-7-|
Ab|-5-5-5-5-5-5-5-5-3-3-3-3-7-7-7-7-|
Db|-5-5-5-5-5-5-5-5-3-3-3-3-7-7-7-7-|

????: x4
Eb|---------------------------------|
Bb|---------------------------------|
Gb|-5-5-5-5-5-5-5-5-7-7-7-7---------|
Db|-5-5-5-5-5-5-5-5-7-7-7-7-3-3-3-3-|
Ab|-3-3-3-3-3-3-3-3-5-5-5-5-3-3-3-3-|
Db|-------------------------3-3-3-3-|

?Pre-Chorus?: x4
Eb|--------12---------12--12-|
Bb|-----10-----10-----10--10-|
Gb|-10------------10--10--10-|
Db|--------------------------|
Ab|--------------------------| 
Db|--------------------------|

Chorus:
 - Guitar 1: x4
Eb|-------------------| or |---------------------------------|
Bb|-------------------|    |---------------------------------|
Gb|-------------------|    |---------------------------------|
Db|-3--3-3--3/7-7\2-2-|    |-3-3-3-3-3-3-3-3/7-7-7-7\2-2-2-2-|
Ab|-3--3-3--3/7-7\2-2-|    |-3-3-3-3-3-3-3-3/7-7-7-7\2-2-2-2-|
Db|-3--3-3--3/7-7\2-2-|	   |-3-3-3-3-3-3-3-3/7-7-7-7\2-2-2-2-|

 - Guitar 2: x3
Eb|----------------------|
Bb|----------------------| I think I got it right, sounds good though. :o)
Gb|---7--7h9-9b-9-7~--9~-|
Db|-7--------------------|
Ab|----------------------|
Db|----------------------|

I don't know what to call this: x4
Eb|---------------------------------|
Bb|---------------------------------|
Gb|---------------------------------|
Db|-2-2-2-2-2-2-2-2-0-0-0-0-5-5-5-5-|
Ab|-2-2-2-2-2-2-2-2-0-0-0-0-5-5-5-5-|
Db|-2-2-2-2-2-2-2-2-0-0-0-0-5-5-5-5-|

?Bridge?: x4
Eb|---------------------------------|
Bb|---------------------------------|
Gb|---------------------------------|
Db|-5-5-5-5-5-5-5-5-3-3-3-3-7-7-7-7-|
Ab|-5-5-5-5-5-5-5-5-3-3-3-3-7-7-7-7-|
Db|-5-5-5-5-5-5-5-5-3-3-3-3-7-7-7-7-|

then James and Billy play:
?Bridge?: x8
Eb|---------------------------------|
Bb|---------------------------------|
Gb|-5-5-5-5-5-5-5-5-7-7-7-7---------|
Db|-5-5-5-5-5-5-5-5-7-7-7-7-3-3-3-3-|
Ab|-3-3-3-3-3-3-3-3-5-5-5-5-3-3-3-3-|
Db|-------------------------3-3-3-3-|
I think its just the bass for the first 4 times but then next 4, you do play.

Outro:
 - Guitar 1: x4
Eb|-------------------| or |---------------------------------|
Bb|-------------------|    |---------------------------------|
Gb|-------------------|    |---------------------------------|
Db|-3--3-3--3/7-7\2-2-|    |-3-3-3-3-3-3-3-3/7-7-7-7\2-2-2-2-|
Ab|-3--3-3--3/7-7\2-2-|    |-3-3-3-3-3-3-3-3/7-7-7-7\2-2-2-2-|
Db|-3--3-3--3/7-7\2-2-|	   |-3-3-3-3-3-3-3-3/7-7-7-7\2-2-2-2-|

- Guitar 2: x16 (continous sixteenth notes)
Eb|-12-12-12-12-|
Bb|--x--x--x--x-|
Gb|--9--9--9--9-|
Db|-------------|
Ab|-------------|
Db|-------------|

End on this!:  Eb|----|
	       Bb|----|
	       Gb|----|
	       Db|-0~-|
	       Ab|-0~-|
	       Db|-0~-|

and I may I add that Billy is a genious and Love Is Suicide.
            
Hard to play? Try these video lessons and learn fast. | Correct




comments powered by Disqus
↑ Back to top | Tablatures and chords are parodies/interpretations of the original songs. You may use it for private study, scholarship, research or language learning purposes only