» » »

Smashing Pumpkins, Blank Page Tabs (ver.1)

Artists:  A B C D E F G H I J K L M N O P Q R S T U V W X Y Z # 

Blank Page Tabs (ver.1)

Smashing Pumpkins Tabs
Rating:
0/5 (0 votes)
Hard to play? Try these video lessons and learn fast.
                Release: Adore
Words and music by: Billy Corgan
Performed by: The Smashing Pumpkins


*INTRO* (piano arranged for guitar)

E||------------------5-----|
B||--3----3-----6----6-----|
G||--4----4-----7----7-----|
D||--5-------5--7-------7--|
A||-------------5----------|
E||--3---------------------|


  Q    E  E  Q    E  E   
-------5----------3-----|
--5----5-----5----5-----|
--5----5-----5----5-----|
--7-------7--5-------5--|
-------------3----------|
--5---------------------|


  Q    E  E  Q    E  E   
-------7----------5-----|
--8----8-----6----6-----|
--9----9-----7----7-----|
--9-------9--7-------7--|
-------------5----------|
--0---------------------|


  Q    E  E  Q    E  E   
-------5----------3-----|
--5----5-----5----5-----|
--5----5-----5----5-----|
--7-------7--5-------5--|
-------------3----------|
--5---------------------|


  Q    E  E  Q    E  E   
--3----3----------------|
--3----3-----0----0-----|
--4----4-----0----0-----|
----------5----------2--|
------------------------|
--3----------0----------|


  Q    E  E  Q    E  E   
-------5----------5-----|
--6----6-----5----5-----|
--7----7-----5----5-----|
--7-------7--7-------7--|
--5---------------------|
-------------5----------|


  Q    E  E  Q    E  E   
-------3----------7-----|
--5----5-----8----8-----|
--5----5-----9----9-----|
--5-------5--9-------9--|
--3---------------------|
-------------0----------|


  Q    E  E  Q    E  E   
-------5----------5-----|
--5----5-----6----6-----|
--5----5-----7----7-----|
--7-------7--7-------7--|
-------------5----------|
--5---------------------|


  Q    E  E  Q    E  E   
-------5----------5-----|
--5----5-----6----6-----|
--5----5-----7----7-----|
--7-------7--7-------7--|
-------------5----------|
--5---------------------|

*CHORUS*

  Q    E  E  Q    E  E   
------------------5-----|
--3----3-----6----6-----|
--4----4-----7----7-----|
--5-------5--7-------7--|
-------------5----------|
--3---------------------|
  Blank     Page...  was

  Q    E  E  Q    E  E   
-------5----------3-----|
--5----5-----5----5-----|
--5----5-----5----5-----|
--7-------7--5-------5--|
-------------3----------|
--5---------------------|
             rage (etc..)

  Q    E  E  Q    E  E   
-------7----------5-----|
--8----8-----6----6-----|
--9----9-----7----7-----|
--9-------9--7-------7--|
-------------5----------|
--0---------------------|


  Q    E  E  Q    E  E          
-------3----------7-----|
--5----5-----8----8-----|
--5----5-----9----9-----|
--5-------5--9----------|
--3------------------7--|
-------------0----------|




Duration Legend
---------------
W - whole
H - half
Q - quarter
E - 8th
S - 16th
T - 32nd
X - 64th
. - note dotted
|-n-|  - n-tuplets
            

comments powered by Disqus
↑ Back to top | Smashing Pumpkins Tabs for Blank Page. Lyrics for acoustic guitar and electric guitar. Tablatures and chords are parodies/interpretations of the original songs. You may use it for private study, scholarship, research or language learning purposes only