» » »

Blank Tabs (ver.2)

Artists:  A B C D E F G H I J K L M N O P Q R S T U V W X Y Z # 

Blank Tabs (ver.2)

Smashing Pumpkins
Rating:
0/5 (0 votes)

Tabs too difficult? Try these video lessons and learn fast.
                #

BLANK - by Smashing Pumpkins

Acoustic

Chorus

|------------------------------------------------------------------
|------------------------------------------0---------------0-------
|----------2-----------4-----4---------2-----2---2-----2-----2---2-
|-----4------4---4-------------------2---------2-----2---------2---
|---4----------4-----6-----6-----6-0-----0---------0-----0---------
|-2-----2----------4-----4-----4-----------------------------------

Verse

|---------------------------------------------------------
|-------------------------0-------------------------------
|-------------4-------2-----2---2-------------------------
|-----4---------6---2---------2---------------------------
|---4-------6-----0-----0---------------------------------
|-2-----2-4-----------------------------------------------
            
Tabs too difficult? Try these video lessons and learn fast.




comments powered by Disqus
↑ Back to top | Tablatures and chords are parodies/interpretations of the original songs. You may use it for private study, scholarship, research or language learning purposes only