» » »

Hang On To Your Love Bass tabs (ver.2)

Artists:  A B C D E F G H I J K L M N O P Q R S T U V W X Y Z # 

Hang On To Your Love Bass tabs (ver.2)

Sade
Rating:
0/5 (0 votes)
Tabs too difficult? Try these video lessons and learn fast.
                -------------------------------------------------------------------------------
                             Hang on to your Love - Sade
-------------------------------------------------------------------------------

   ( Intro )

G|---------------|---------------|---------------|---------------|----------------|
D|---------------|---------------|---------------|---------------|----------------|
A|-5---3-5--5-3--|-5---3-5--5-3--|-5---3-5--5-3--|-5---3-5--5-3--|-5---3-5--5-3---|
E|---5----------5|---5----------5|---5----------5|---5----------5|---5----------5-|

G|---------------|---------------|---------------|---------------|----------------|
D|---------------|---------------|---------------|---------------|----------------|
A|-5---3-5--5-3--|-5---3-5--5-3--|-5---3-5--5-3--|-5---3-5--5-3--|-5---3-5--5-3---|
E|---5----------5|---5----------5|---5----------5|---5----------5|---5----------5-|


G|---------------|---------------|---------------|---------------|----------------|
D|---------------|---------------|---------------|---------------|----------------|
A|-5---3-5--5-3--|-5---3-5--5-3--|-5---3-5--5-3--|-5---3-5--5-3--|-5---3-5--5-3---|
E|---5----------5|---5----------5|---5----------5|---5----------5|---5----------5-|


                  In heavens name why are you walking away
G|---------------|---------------|---------------|---------------|----------------|
D|---------------|---------------|---------------|---------------|----------------|
A|-5---3-5--5-3--|-5---3-5--5-3--|-5---3-5--5-3--|-5---3-5--5-3--|-5---3-5--5-3---|
E|---5----------5|---5----------5|---5----------5|---5----------5|---5----------5-|


 In heavens name why do you play these games 
G|---------------|---------------|---------------|---------------|----------------|
D|---------------|---------------|---------------|---------------|----------------|
A|-5---3-5--5-3--|-5---3-5--5-3--|-5---3-5--5-3--|-5---3-5--5-3--|-5---3-5--5-3---|
E|---5----------5|---5----------5|---5----------5|---5----------5|---5----------5-|
 
  If you're down on luck 
G|---------------|---------------|---------------|---------------|----------------|
D|---------------|---------------|---------------|---------------|----------------|
A|-5---3-5--5-3--|-5---3-5--5-3--|-5---3-5--5-3--|-5---3-5--5-3--|-5---3-5--5-3---|
E|---5----------5|---5----------5|---5----------5|---5----------5|---5----------5-|

  It's so precious
G|---------------|---------------|---------------|---------------|----------------|
D|---------------|---------------|---------------|---------------|----------------|
A|-5---3-5--5-3--|-5---3-5--5-3--|-5---3-5--5-3--|-5---3-5--5-3--|-5---3-5--5-3---|
E|---5----------5|---5----------5|---5----------5|---5----------5|---5----------5-|

  If you want your love to grow
G|---------------|---------------|---------------|---------------|---------|
D|---------------|---------------|---------------|---------------|---------|
A|-5---3-5--5-3--|-5---3-5--5-3--|-5---3-5--5-3--|-5---3-5--5-3--|---------|
E|---5----------5|---5----------5|---5----------5|---5----------5|-5-5-5-5-|

  In heavens name why are you walking away
G|---------------|---------------|---------------|---------------|----------------|
D|---------------|---------------|---------------|---------\7755-|----------------|
A|-5---3-5--5-3--|-5---3-5--5-3--|-5---3-5--5-3--|-5---3-5------8|-5---3-5--5-3---|
E|---5----------5|---5----------5|---5----------5|---5-----------|---5----------5-|

 Why do you play these games                 
G|---------------|---------------|---------------|---------------|----------------|
D|---------------|---------------|---------------|---------------|----------------|
A|-5---3-5--5-3--|-5---3-5--5-3--|-5---3-5--5-3--|-5---3-5--5-3--|-5---3-5--5-3---|
E|---5----------5|---5----------5|---5----------5|---5----------5|---5----------5-|

  It's not easy-
G|---------------|---------------|---------------|---------------|----------------|
D|---------------|---------------|---------------|---------------|----------------|
A|-5---3-5--5-3--|-5---3-5--5-3--|-5---3-5--5-3--|-5---3-5--5-3--|-5---3-5--5-3---|
E|---5----------5|---5----------5|---5----------5|---5----------5|---5----------5-|

  Don't give up
G|---------------|---------------|---------------|---------------|----------------|
D|---------------|---------------|---------------|---------------|----------------|
A|-5---3-5--5-3--|-5---3-5--5-3--|-5---3-5--5-3--|-5---3-5--5-3--|-5---3-5--5-3---|
E|---5----------5|---5----------5|---5----------5|---5----------5|---5----------5-|

  You gotta stick together
G|---------------|---------------|---------------|---------|
D|---------------|---------------|---------------|---------|
A|-5---3-5--5-3--|-5---3-5--5-3--|-5---3-5--5-3--|---------|
E|---5----------5|---5----------5|---5----------5|-5-5-5-5-|

  In heavens name why are you walking away
G|---------------|---------------|---------------|---------------|----------------|
D|---------------|---------------|---------------|---------\7755-|----------------|
A|-5---3-5--5-3--|-5---3-5--5-3--|-5---3-5--5-3--|-5---3-5------8|-5---3-5--5-3---|
E|---5----------5|---5----------5|---5----------5|---5-----------|---5----------5-|

 Why do you play these games                      ( interlude )
G|---------------|---------------|---------------|---------------|---------------|
D|---------------|---------------|---------------|-----3-5-7-5-3-|-----3-5-7-5-3-|
A|-5---3-5--5-3--|-5---3-5--5-3--|-5---3-5--5-3--|-5-------------|-5-------------|
E|---5----------5|---5----------5|---5----------5|---5-----------|---5-----------|

  ( interlude )
G|---------------|---------------|---------------|--------------|---------------|
D|---------------|---------------|-----3-5-7-5-3-|----3-5-7-5-3-|---------------|
A|-5---3-5--5-3--|-5---3-5--5-3--|-5-------------|5-------------|5---3-5--5-3---|
E|---5----------5|---5----------5|---5-----------|--5-----------|--5----------5-|

                  If you want it to get stronger
G|---------------|---------------|---------------|---------------|----------------|
D|---------------|---------------|---------------|---------------|----------------|
A|-5---3-5--5-3--|-5---3-5--5-3--|-5---3-5--5-3--|-5---3-5--5-3--|-5---3-5--5-3---|
E|---5----------5|---5----------5|---5----------5|---5----------5|---5----------5-|

  You gotta stick together
G|---------------|---------------|---------------|---------|
D|---------------|---------------|---------------|---------|
A|-5---3-5--5-3--|-5---3-5--5-3--|-5---3-5--5-3--|---------|
E|---5----------5|---5----------5|---5----------5|-5-5-5-5-|

  In heavens name why are you walking away
G|---------------|---------------|---------------|---------------|----------------|
D|---------------|---------------|---------------|---------\7755-|----------------|
A|-5---3-5--5-3--|-5---3-5--5-3--|-5---3-5--5-3--|-5---3-5------8|-5---3-5--5-3---|
E|---5----------5|---5----------5|---5----------5|---5-----------|---5----------5-|


 Why do you play these games                 
G|---------------|---------------|---------------|---------------|----------------|
D|---------------|---------------|---------------|---------------|----------------|
A|-5---3-5--5-3--|-5---3-5--5-3--|-5---3-5--5-3--|-5---3-5--5-3--|-5---3-5--5-3---|
E|---5----------5|---5----------5|---5----------5|---5----------5|---5----------5-|

  Don't let it walk away
G|---------------|---------------|---------------|---------------|----------------|
D|---------------|---------------|---------------|---------------|----------------|
A|-5---3-5--5-3--|-5---3-5--5-3--|-5---3-5--5-3--|-5---3-5--5-3--|-5---3-5--5-3---|
E|---5----------5|---5----------5|---5----------5|---5----------5|---5----------5-|

                   Got to, Got to               
G|---------------|---------------|---------------|---------------|----------------|
D|---------------|---------------|---------------|---------------|----------------|
A|-5---3-5--5-3--|-5---3-5--5-3--|-5---3-5--5-3--|-5---3-5--5-3--|-5---3-5--5-3---|
E|---5----------5|---5----------5|---5----------5|---5----------5|---5----------5-|

  Got to got to
G|---------------|---------------|---------------|---------------|----------------|
D|---------------|---------------|---------------|---------\7755-|----------------|
A|-5---3-5--5-3--|-5---3-5--5-3--|-5---3-5--5-3--|-5---3-5------8|-5---3-5--5-3---|
E|---5----------5|---5----------5|---5----------5|---5-----------|---5----------5-|


  ( Outro )                                    fade
  Walking away...
G|---------------|---------------|---------------|---------------|----------------|
D|---------------|---------------|---------------|---------------|----------------|
A|-5---3-5--5-3--|-5---3-5--5-3--|-5---3-5--5-3--|-5---3-5--5-3--|-5---3-5--5-3---|
E|---5----------5|---5----------5|---5----------5|---5----------5|---5----------5-|
            
Tabs too difficult? Try these video lessons and learn fast.


comments powered by Disqus
↑ Back to top | Tablatures and chords are parodies/interpretations of the original songs. You may use it for private study, scholarship, research or language learning purposes only