» » »

Beautiful Tabs (ver.4)

Artists:  A B C D E F G H I J K L M N O P Q R S T U V W X Y Z # 

Beautiful Tabs (ver.4)

Smashing Pumpkins
Rating:
5/5 (1 vote)

Hard to play? Try these video lessons and learn fast.
                (Live)
Ok this is the way i like to play. I hear some live recordings of this song, Billy and 
do an intro with the guitar that it´s sounds familiar like this. (Thanks to spfc.org for 
parts)

Hope you like it !

Standard SP tuning (Eb)

Intro (1º part)

|---------------------------------------------------------|
|---------------------------------------------------------|
|-------9----9h11---9--------------11-----12-----11-------|
|----11---11-----------11-------9------9------9------9----|
---0------------------------10----------------------------|
|---------------------------------------------------------|


...continue

-----------------------------------------------------------------------------|
----------10------10h12---10-------------------------------------------------|
------11------11--------------11----------9-------9h11---9-------------------|
--12----------------------------------11------11-------------11--------------|
-----------------------------------0-----------------------------------------|
-----------------------------------------------------------------------------|


Intro  (2º part)

--------------------------------------------------------------|
------------------------------------------10------------------|
----------9-------9h11--11/12------12----------12-----12------|
-----11-------11----------------------------------------------|
--0----------------------------10-----10-----------10---------|
--------------------------------------------------------------|

-----------------------------------------------------------------------------|
----------10------10h12---10-------------------------------------------------|
------11------11--------------11-----------9-------9h11-----9----------------|
--12----------------------------------11-------11---------------11-----------|
----------------------------------0------------------------------------------|
-----------------------------------------------------------------------------|

Then Start the verse, you can play this intro (1º part) for the 1º verse or play the chords:

Verse: (Beautiful...)A G D A
       (Wondefull...)A G D E

Prechorus:
A E D D
A E D D
A E D E
G G

Then back to verse

Chorus
D E A F#m
D E A A7
D E A F#m
Bm E A F#m
Bm E


Interlude
--------------------------------------------|
--------------------------------------------|
-----6b7r6----7---7----6h7-9/10----10---10--|
---7--------5---5----0----------------------|
-0-------------------------------8----8-----|
--------------------------------------------|

Back to chorus:

D E A F#m
D E A A7
D E A F#m
Bm E A F#m
Bm E A F#m
Bm E F#m D


End...

D E A F#m
D E F#m D

And fade..
            
Hard to play? Try these video lessons and learn fast. | Correct




comments powered by Disqus
↑ Back to top | Tablatures and chords are parodies/interpretations of the original songs. You may use it for private study, scholarship, research or language learning purposes only