>
 >
Astral Planes 1

Astral Planes 1 Guitar Tabs

Smashing Pumpkins - Astral Planes 1 chords, tabs, tablatures, lyrics

Guitar lessons | Add/correct | Request | Top 50 tabs Artists:  A B C D E F G H I J K L M N O P Q R S T U V W X Y Z 0-9

Astral Planes 1 Guitar Tabs – Smashing Pumpkins

CD, Sheet music, Poster

Do you like Astral Planes 1? Share with your friends now
TabsTabs v2
Band: Smashing Pumpkins
Favorite song so far on the new album.
Tuning: Standard
Intro:
e|--------------------------------------------------|
B|--------------------------------------------------|
G|--9------16------17----------16-------------------|
D|--x-------x-------x-----------x-------------------|x4
A|--7------14------15----------14-------------------|
E|--------------------------------------------------|
2nd Guitar plays an E power chord and lets it ring

Fill:
e|-0-0-0-0-0-0-0-0-0-0-0-7-7-7-7-7-7-7-7-8-8-8-8-8-8-8-8-8-8-8-8-8-8-8--17v-|
B|--------------------------------------------------------------------------|
G|--------------------------------------------------------------------------|
D|--------------------------------------------------------------------------|
A|--------------------------------------------------------------------------|
E|--------------------------------------------------------------------------|
After this is played it goes to the...
Verse:
   Everyone gather upon your soul.
e|----------------------------------|
B|----------------------------------|
G|----------------------------------|
D|----------------------------------|
A|--15-14-15-14---------------------|
E|--------------15--12---12--14--10-|
The last time at the end add
E|--12--7-|
   Everyone Everyone
e|---------------|
B|---------------|
G|---------------|
D|---------4-6-8-|
A|--4-5-7--------|
E|---------------|
Play that part at the start of the verse again then that next part then...
   Everyone Everyone Everyone...
e|---------------------------------------|
B|---------------------------------------|
G|-------------------------------9--9--9-|
D|--6-7-9---9-10-12---12-13-15---9--9--9-|
A|-------------------------------7--7--7-|
E|---------------------------------------|
Solo:
e|-------------------15b--15-12----------------------------------------------------------------|
B|--15b--15b--15b---------------15-12-----------------------15b--------------------------------|
G|-------------------------------------14b--14p12------------------14b--14p12h14p12-----12-----|
D|-------------------------------------------------14p12----------------------------14-----14--|
A|---------------------------------------------------------------------------------------------|
E|---------------------------------------------------------------------------------------------|

e|---------------------------------|
B|---------------------------------|
G|---------------------------------|
D|-------------------14p12--14b-12-|
A|--14b---12--14p12----------------|
E|---------------------------------|
Go back and play the first riff and at the end play...
G|-19-|
D|--x-|
A|-17-|
Then play the verse then play this...
  G  F  Fm  Em
  Far away lights
e|-3-2-1-0-|
B|-3-2-1-0-|
G|-4-3-2-0-|
D|-5-4-3-2-|
A|-5-4-3-2-|
E|-3-2-1-0-|
The solo before the far away lights part is something like this...
e|--------------15b--15-12----------------------|
B|-15b-15b-15b-------------15--12-15b--12-15-12-|
G|----------------------------------------------|
D|----------------------------------------------|
A|----------------------------------------------|
E|----------------------------------------------|

e|--------------------------------------------------------|
B|--------------------------------------------------------|
G|-14b--12-----------------------14b--14p12---------------|
D|---------14-12----12h14p12----------------14--12-14-12v-|
A|---------------14----------14---------------------------|
E|--------------------------------------------------------|
After far away lights play the verse
Then the final solo...
e|-------------15b--12-------------------------------|
B|-15b-15b-15b---------15--15b--15p12-15b--15p12-15b-|
G|---------------------------------------------------|
D|---------------------------------------------------|
A|---------------------------------------------------|
E|---------------------------------------------------|

e|--------------------------------------------------------------|
B|--------------------------------------------------------------|
G|-14-12-------------------------------------------12h14p12-14b-|
D|-------14-12-14b--14-12-14b--14-12---------12-14--------------|
A|-----------------------------------14-12----------------------|
E|--------------------------------------------------------------|

e|----------------------------------------------------------------------------------|
B|--15b--12-15--12h15p12------12h15p12----12h15p12----12h15p12----------------------|
G|-----------------------14------------14----------14----------14---14--12h14p12----|
D|-------------------------------------------------------------------------------14-|
A|----------------------------------------------------------------------------------|
E|----------------------------------------------------------------------------------|

e|------------------------------------|
B|------------------------------------|
G|------------------------------------|
D|--------------------------12h14-14b-|
A|-12--12h14p12-------12h14-----------|
E|--------------14-12-----------------|
                   let ring
e|---15b--12h15p12-15b-|
B|---------------------|
G|---------------------|
D|---------------------|
A|---------------------|
E|---------------------|

Thank you for viewing and I hope you like it, because it took me a while.





Comments


Popular Smashing Pumpkins tabs & chords
Crash Car Star 1 Bass Tabs
Tear 1 Bass Tabs
The Groover 1 Bass Tabs
In The Arms Of Sleep Chords
Appels + Oranjes Tabs
Blank Page Tabs
Jennifer Ever Tabs
Mayonaise 3 Tabs
Pastichio Medley 1 Tabs
Today 1 Tabs


Song lyrics



↑ Back to top | Tablatures and chords are parodies/interpretations of the original songs. You may use it for private study, scholarship, research or language learning purposes only
© 2014 AZChords.com Contact us | Privacy policy | DMCA | Add/correct tabs | Request tabs | Top 50 tabs