» » »

Aeroplane Flies High Tabs (ver.2)

Artists:  A B C D E F G H I J K L M N O P Q R S T U V W X Y Z # 

Aeroplane Flies High Tabs (ver.2)

Smashing Pumpkins
Rating:
4/5 (1 vote)

Hard to play? Try these video lessons and learn fast.
                tuning: standard

this is my version of The Aeroplane Flies High by the Smashing Pumpkins.


VERSE

E |---------------------------------------------------------------------|
B |---------------------------------------------------------------------|
G |---------------------------------------------------------------------|
D |---------------------------------------------------------------------|
A |--------------------------------------------------------3-3----------|
E |--1-1-1-1-1-1-1-1-0-0-0-0-0-0-0-0-5-5-5-5-5-5-5-5-5-5-5-----3-3-0----|


CHORUS

E |---------------------------------------------------------------------|
B |---------------------------------------------------------------------|
G |--------------------------------------------------------5-5----------|
D |--3-3-3-3-3-3-3-3-2-2-2-2-2-2-2-2-7-7-7-7-7-7-7-7-7-7-7-5-5-5-5-2----|
A |--3-3-3-3-3-3-3-3-2-2-2-2-2-2-2-2-7-7-7-7-7-7-7-7-7-7-7-3-3-5-5-2----|
E |--1-1-1-1-1-1-1-1-0-0-0-0-0-0-0-0-5-5-5-5-5-5-5-5-5-5-5-----3-3-0----|


you can also play the chorus softly, and without distortion, during the
verse. that's what i came up with.
            
Hard to play? Try these video lessons and learn fast. | Correct




comments powered by Disqus
↑ Back to top | Tablatures and chords are parodies/interpretations of the original songs. You may use it for private study, scholarship, research or language learning purposes only