» » »

Smashing Pumpkins, 1979 Bass tabs (ver.1)

Artists:  A B C D E F G H I J K L M N O P Q R S T U V W X Y Z # 

1979 Bass tabs (ver.1)

Smashing Pumpkins Tabs
Rating:
3/5 (3 votes)
1979 lessons Tabs too difficult? Try these video lessons and learn fast
                easy song, but no one seems to be able to get it right yet, so here it is:
flat tuning Eb,Ab,Db,Gb

bass comes in at second verse

verse:
come in after "you and i...should meet"
|-----------------------------------------------------------------|
|-----------------------------------------------------------------|
|-6-6-6-6-6-6-6-7-------------------------------------------------|
|-------------------7-7-7-7-7-7-7-5-5-5-5-5-5-5-5-5-5-5-5-5-5-5-5-| 3x

prechorus 1:
"end.....to it all"
|--------------------------------|
|--------------------------------|
|--------------------------------|
|-2-2-2-2-2-2-2-7--7-7-7-7-7-7-7-|

chorus
"iiiiiiiii don't even            care"
|-----------------------------------------------------------------|
|-----------------------------------------------------------------|
|-7-7-7-7-7-7-7-7-7-7-7-7-7-7-7-7---------------------------------|
|---------------------------------5-5-5-5-5-5-5-5-5-5-5-5-5-5-5-5-| 3x

post chorus:
"absorbed, to the earth, below"
|--------------------------------|
|--------------------------------|
|--------------------------------|
|-2-2-2-2-2-2-2-7--7-7-7-7-7-7-7-|

verse 4x

prechorus 2:
|--------------------------------|
|--------------------------------|
|--------------------------------|
|-2-2-2-2-2-2-2-5--5-5-5-5-5-5-5-|

chorus 3x

bridge:
"assured, to the lights"
|----------------------------------------------------------------|
|----------------------------------------------------------------|
|-2-2-2-2-2-2-2-2-2-2-2-2-2-2-2-2-4-4-4-4-4-4-4------------------|
|-----------------------------------------------5--5-5-5-5-5-5-5-| 3x

|--------------------------------|
|--------------------------------|
|--------------------------------|
|-2-2-2-2-2-2-2-7--7-7-7-7-7-7-7-|

(rest for first half of next verse)

(after "hung down with the freaks"):
verse 2x

prechorus#1

chorus 3x

postchorus 1x

verse 2x

|------|
|------|
|------|
|-7----| da end!

if you like it, please put up a comment, and i might put up a few more sp tabs.  i'm 
of doing "here is no why" and "tonight, tonight".  positive feedback may get me to do it.

-brendan
            

comments powered by Disqus
↑ Back to top | Smashing Pumpkins Bass for 1979. Lyrics for acoustic guitar and electric guitar. Tablatures and chords are parodies/interpretations of the original songs. You may use it for private study, scholarship, research or language learning purposes only