>
 >
197

197 Guitar Tabs

Smashing Pumpkins - 197 chords, tabs, tablatures, lyrics

Guitar lessons | Add/correct | Request | Top 50 tabs Artists:  A B C D E F G H I J K L M N O P Q R S T U V W X Y Z 0-9

197 Guitar Tabs – Smashing Pumpkins

CD, Sheet music, Poster

Do you like 197? Share with your friends now
Tabs
Artist  : The Smashing Pumpkins


Written by W. P. Corgan
As performed on MTV 

  
     Main Part (play 4 times):

     e---x-x-x-x-x-x-x--x--x-x-x-x---------------------------
     B---x-x-x-x-x-x-x--x--x-x-x-x---------------------------
     G---8-8-8-8-8-8-8--9--4-4-4-4---------------------------
     D---X-x-x-x-x-x-x--x--x-x-x-x-(6)/7\6-4-2-4-6-9--9-9----
     A---6-6-6-6-6-6-6--7--2-2-2-2---------------------------
     E---0-0-0-0-0-0-0--0--0-0-0-0---------------------------

    Lyrics:
                                   Shakedown 1979  
                                   Cool kids never have the time
                                   On a live wire right up off the 

e-0-0-0-0-0-0-0-0---0-0-0-0-0-0-0------------------------------ 
B-0-0-0-0-0-0-0-0---0-0-0-0-0-0-0------------------------------
G-0-0-0-0-0-0-0-0---0-0-0-0-0-0-0------------------------------
D-7-7-7-7-7-7-7-7---9-9-9-9-9-9-9------------------------------
A-9-9-9-9-9-9-9-9---9-9-9-9-9-9-9------------------------------
E-9-9-9-9-9-9-9-9---7-7-7-7-7-7-7------------------------------

 
street you and  I   should meet.

The same with lyrics:
Junebug skipping like a stone
With the headlines pointed at the dawn
We were shure we´d never seen an 
end to it all

Chorus:
                         A (not sure)  
e----0--0--0-0-0--0--0---0-0--------------------------------------
B----0--0--0-0-0--0--0---2-2--------------------------------------
G----9--9--9-9-9--9--4---2-2--------------------------------------
D----9--9--9-9-9--9--X---2-2--------------------------------------
A----7--7--7-7-7--6--2---0-0--------------------------------------
E----0--0--0-0-0--0--0---0-0--------------------------------------

And  I don´t      e  ven care to shake these zipper  
blues         And we don´t know just where our bones will 
rest           To dust I guess forgotten and   

e--0-0-0-0-----------0-0-0-0-------------------------------------
B--0-0-0-0-----------0-0-0-0-------------------------------------
G--0-0-0-0-----------0-0-0-0-------------------------------------
D--7-7-7-7-----------9-9-9-9-------------------------------------
A--9-9-9-9-----------9-9-9-9-------------------------------------
E--9-9-9-9-----------7-7-7-7-------------------------------------

   absorbed into the earth below
  
Main part (4x) with lyrics:

Double cross the vacant and the bored
They´re not sure just what we have in store
Morphine city slippin´
e----------------------------------------------------------------
B----------------------------------------------------------------
G----0-0-0-0-0-0--0-0-0------------------------------------------
D----4-4-4-4-4-4--7-7-7------------------------------------------
A----4-4-4-4-4-4--7-7-7------------------------------------------
E----2-2-2-2-2-2--5-5-5------------------------------------------

.... dues down to see 

Chorus with lyrics

That we don´t even care as restless as we 
are we feel the pull in the land of a thousand 
guilts and poured cement lamented and  

Bridge ( you can play the e and B string open too )
e--X--X--XXX--X--XX--XXX----X--X--XXX--X-XX-XXX---------------------
B--X--X--XXX--X--XX--XXX----X--X--XXX--X-XX-XXX---------------------
G--4--4--444--4--44--444----6--6--666--X-XX-XXX---------------------
D--4--4--444--4--44--444----6--6--666--7-77-777---------------------
A--2--2--222--2--22--222----4--4--444--7-77-777---------------------
E--X--X--XXX--X--XX--XXX----X--X--XXX--X-XX-XXX---------------------

assured  to the lights and  towns      below
faster than the             speed of   sound
faster than we              thought  we´d gooooo

e-0--0--000--0--00-------------------------------------------------
B-0--0--000--0--00-------------------------------------------------
G-0--0--000--0--00-------------------------------------------------
D-7--7--777--9--99-------------------------------------------------
A-9--9--999--9--99-------------------------------------------------
E-9--9--999--7--77-------------------------------------------------  
 beneath the sound of hope 

Main part (4x) with lyrics

Justine never knew the rules
Hung down with the freaks and ghouls
No apologies ever need be made
I know you better than you 

e-0-0-0-0-0----0-0-0-0-0---------------------------------------------
B-0-0-0-0-0----0-0-0-0-0---------------------------------------------
G-0-0-0-0-0----0-0-0-0-0---------------------------------------------
D-7-7-7-7-7----9-9-9-9-9---------------------------------------------
A-9-9-9-9-9----9-9-9-9-9---------------------------------------------
E-9-9-9-9-9----7-7-7-7-7---------------------------------------------

  fake it to   see

Refrain 
that we don't even care to shake these zipper 
blues and we don't know just where our bones will 
rest to dust i guess forgotten and 

absorbed into the earth below

Main part two times with lyrics:

the street heats the urgency of now
                              E (022100)  
as you can see there's no one around

I think this is pretty much close to how they play it.
Enjoy it!

P.S.: If you have got any corrections, please send me.


---------------------------------------------------------
---------------------------------------------------------





Comments


Popular Smashing Pumpkins tabs & chords
Bring The Light Bass Tabs
Doomsday Clock Bass Tabs
God Bass Tabs
Plume 2 Bass Tabs
Ava Adore 1 Chords
Im Doing The Best I Can Chords
Disarm Violin And Cello Tabs
Siva 2 Tabs
Superchrist Tabs
Thats The Way My Love Is 1 Tabs


Song lyrics



↑ Back to top | Tablatures and chords are parodies/interpretations of the original songs. You may use it for private study, scholarship, research or language learning purposes only
© 2014 AZChords.com Contact us | Privacy policy | DMCA | Add/correct tabs | Request tabs | Top 50 tabs