>
 >
Out Of Control

Out Of Control Guitar Tabs

Sloppy Meat Eaters - Out Of Control chords, tabs, tablatures, lyrics

Guitar lessons | Add/correct | Request | Top 50 tabs Artists:  A B C D E F G H I J K L M N O P Q R S T U V W X Y Z 0-9

Out Of Control Guitar Tabs – Sloppy Meat Eaters

CD, Sheet music, Poster

Do you like Out Of Control? Share with your friends now
Tabs
"Outta Control" - Sloppy Meateaters

This is one hell of a good song
Its on the game freestyle scooters which sucks but the song rocks
Intro:
e|---------------------------------------------------------------------------|
B|---------------------------------------------------------------------------|
G|---------------------------------------------------------------------------|
D|---------------------------------------------------------------------------|
A|-------6----7--------------------------------------------------------------|
E|---7-------------7---------------------------------------------------------|
Use power chords if you wish
end intro
e|--------------------------------------------------------------------------|
B|--------------------------------------------------------------------------|
G|--------------------------------------------------------------------------|
D|---9----------------------------------------------------------------------|
A|-----------------------9----4---------------------------------------------|
E|---7-------------------7----2---------------------------------------------|

e|---------------------------------------------------------------------------|
B|---------------------------------------------------------------------------|
G|---4---8--9-8--6--4----4---8--9-8-11--9--7--6------------------------------|
D|---------------------------------------------------------------------------|
A|---2---6--7-6--4--2----2---6--7-6--9--7--6--4------------------------------|
E|---------------------------------------------------------------------------|

Verse
e|---------------------------------------------------------------------------|
B|---------------------------------------------------------------------------|
G|---------------------------------------------------------------------------|
D|---4-----------------------------------------------------------------------|
A|---2---2--4----6---2--4----------------------------------------------------|
E|-------0--2----4---0--2----------------------------------------------------|

e|---------------------------------------------------------------------------|
B|---------------------------------------------------------------------------|
G|---------------------------------------------------------------------------|
D|--------------4------------------------------------------------------------|
A|---6----2----2---4---------------------------------------------------------|
E|---4----0--------2---------------------------------------------------------|

Chorus
e|---------------------------------------------------------------------------|
B|---------------------------------------------------------------------------|
G|---------------------------------------------------------------------------|
D|-----------4---------------------------------------------------------------|
A|---2-------2----4-----------------------------------------------------------|
E|---0------------2-----------------------------------------------------------|

bridge:
e|---------------------------------------------------------------------------|
B|---------------------------------------------------------------------------|
G|---------------------------------------------------------------------------|
D|---------------------------------------------------------------------------|
A|---6----4----2----4--------------------------------------------------------|
E|---4----2----0----2--------------------------------------------------------|

e|---------------------------------------------------------------------------|
B|---------------------------------------------------------------------------|
G|---9--11---13--11----------------------------------------------------------|
D|---------------------------------------------------------------------------|
A|---7---9---11---9----------------------------------------------------------|
E|---------------------------------------------------------------------------|

DoOb \\\|///
      \o/





Comments


Popular Sloppy Meat Eaters tabs & chords
Another Friend Tabs
Brand New Kind Of Tabs
Escape Tabs
Fat Chicks Tabs
Give Me Something Tabs
I Sing Like A Girl Tabs
Outta Control Tabs
Play The Game (Intro) Tabs
So Long Tabs
Suddenly Forget Tabs


Song lyrics



↑ Back to top | Tablatures and chords are parodies/interpretations of the original songs. You may use it for private study, scholarship, research or language learning purposes only
© 2014 AZChords.com Contact us | Privacy policy | DMCA | Add/correct tabs | Request tabs | Top 50 tabs