» » »

Slipknot, Wait & Bleed Tabs (ver.1)

Artists:  A B C D E F G H I J K L M N O P Q R S T U V W X Y Z # 

Wait & Bleed Tabs (ver.1)

Slipknot Tabs
 Rating:
4/5 (4 votes)
Wait & Bleed lessons Tabs too difficult? Try these video lessons and learn fast

WWW.AZCHORDS.COM | Slipknot Tabs - Wait & Bleed Tabs (ver. 1)


Tuning: B F# B E G# C#

Intro
Guitar 1
|-----------------------------------------------------
|-----------------------------------------------------
|-----------------------------------------------------
|---0------7------1------8-----7---------8------------
|----------------------------5-----7---6------8---8---
|-0------7------1-----/8---------7----------8---8-----
  then                                                                            
Guitar 2
|----------------------------------------------
|----------------------------------------------
|-14-14-14-14-14-14-14-14-14-15-14-15-15-14-15-
|--x--x--x--x--x--x--x--x--x--x--x--x--x--x--x-
|-12-12-12-12-12-12-12-12-12-13-12-13-13-12-13-
|----------------------------------------------

Interlude into Verse BothGuitars                                                                          |---------------------------------
|---------------------------------
|---------------------------------
|---------------------------------
|---0--1--0---0--1--0-------5-----
|---0--1--0---0--1--0--0--6-------

Verse
Both Guitars
|---------------------------------------------------------------------------------
|---------------------------------------------------------------------------------
|---------------------------------------------------------------------------------
|---------------------------------------------------------------------------------
|---0--1--0---0--1--0-------------0--1--0---0--1--0---0--1--0---0--1--0--1--4--1--
|---0--1--0---0--1--0--0--6--5----0--1--0---0--1--0---0--1--0---0--1--0--1--4--1--


Guitar 2
|----------------------------------------------
|----------------------------------------------
|-14-14-14-14-14-14-14-14-14-15-14-15-15-14-15-
|--x--x--x--x--x--x--x--x--x--x--x--x--x--x--x-
|-12-12-12-12-12-12-12-12-12-13-12-13-13-12-13-
|----------------------------------------------

Other Verse Riff
Both Guitars
the end of the chorus                                            
|----------------------------------------
|----------------------------------------
|----------------------------------------
|----------------------------------------
|-0-1-0--0-1-0---1--4--1---------------
|-0-1-0--0-1-0---1--4--1-----------------
PM               .  .  .

Breakdown
Guitar 1
|-------------------------------|----------------------------
|-------------------------------|----------------------------
|-------------------------------|----------------------------
|-------------------------------|----------------------------
|----12-------------------------|-----12---------------0--1--
|-15----0--13--12----12--0--13--|--15----0--13--12--0--0--1--

Bridge
Both Guitars

|-----------------------------------------------------------
|-----------------------------------------------------------
|-----------------------------------------------------------
|-----2------------------------------2----------------------
|--3--0--0--1--0---0--1---------/--3-0--0--1--0-------0--1--
|--3-----0--1--0---0--1---------/--3----0--1--0-------0--1--

Final Chorus
Guitar 1:
|-------------------------------------------------
|-------------------------------------------------
|-------------------------------------------------
|-------------------------------------------------
|-0--0--0--0--7--7--7--7--1--1--1--1--8--8--8--8--
|-0--0--0--0--7--7--7--7--1--1--1--1--8--8--8--8--       

Guitar 2
Guitar 2
|----------------------------------------------
|----------------------------------------------
|-14-14-14-14-14-14-14-14-14-15-14-15-15-14-15-
|--x--x--x--x--x--x--x--x--x--x--x--x--x--x--x-
|-12-12-12-12-12-12-12-12-12-13-12-13-13-12-13-
|----------------------------------------------

Outro
Both Guitars
--0--1--0----0--1--0--------5|0--1--0----0--1--0------5--0--1--0---0--1--0---1--4--1-
--0--1--0----0--1--0--0---6--|0--1--0----0--1--0---6-----0--1--0---0--1--0---1--4--1-
            
Submit corrections

↑ Back to top | Slipknot Tabs for Wait & Bleed. Lyrics for acoustic guitar and electric guitar. Tablatures and chords are parodies/interpretations of the original songs. You may use it for private study, scholarship, research or language learning purposes only