>
 >
Wait And Bleed

Wait And Bleed Guitar Tabs

Slipknot - Wait And Bleed chords, tabs, tablatures, lyrics

Guitar lessons | Add/correct | Request | Top 50 tabs Artists:  A B C D E F G H I J K L M N O P Q R S T U V W X Y Z 0-9

Wait And Bleed Guitar Tabs – Slipknot

CD, Sheet music, Poster

Do you like Wait And Bleed? Share with your friends now
Bass TabsBass Tabs v2Bass Tabs v3ChordsChords v2TabsTabs v2Tabs v10Tabs v3Tabs v4Tabs v5Tabs v6Tabs v7Tabs v8Tabs v9UkuleleUkulele v2
1st Guitar: Mick Thompson
2nd Guitar: James Root
Tuning: B F# B E G# C#

This is the best Wait And Bleed Tab you can get. Please rate it.
Drop D and tune your guitar down 1 and a half steps. 
 

Mick 0:00  0:22                         (4x)
---------------------------------------------
---------------------------------------------
---------------------------------------------
---0--7--1/---8----7-----------8-----------
------------------5-------7---6-------8---8--
-0--7--1/---8--------7------------8---8----


James 0:12 - 0:22
-14--14-14-14---14-14-14---14-14-15-15--15-15-14-14-14-14---14-14-14-14-14--
--x---x--x--x----x-x--x----x--x--x--x---x--x---x--x--x--x----x--x--x---x--x--
-12--12-12-12---12-12-12---12-12-13-13--13-13--12-12-12-12---12-12-12--12-12--

-----------------------
-----------------------
-14--15-15-15---15-15--
--x---x--x--x----x-x--
-12--13-13-13---13-13--
-----------------------

Mick & James 0:22 - 0:28                                                (1x)
------------------5-------------------5-------------------5-----------------
-0-0-0---0-0-0\6-----0-0-0---0-0-0\6-----0-0-0---0-0-0\6-----0-0-0---0-0-0--


Mick & James 0:28 - 0:49                (8x)                              
--------------------------------------------  
--------------------------------------------  
--------------------------------------------  
--------------------------------------------  
-------1-4-1------------------1-4-1--------
-0-0-0--1-4-1--0-0-0----0-0-0--1-4-1--0-0-0-


James 0:49 - 0:59
-14--14-14-14---14-14-14---14-14-15-15--15-15-14-14-14-14---14-14-14-14-14--
--x---x--x--x----x-x--x----x--x--x--x---x--x---x--x--x--x----x--x--x---x--x--
-12--12-12-12---12-12-12---12-12-13-13--13-13--12-12-12-12---12-12-12--12-12--


-----------------------
-----------------------
-14--15-15-15---15-15--
--x---x--x--x----x-x--
-12--13-13-13---13-13--
-----------------------


Mick & James 0:59 - 1:02                                 (1x)
-------------------------------------------------------------
-------------------------------------------------------------  
-------------------------------------------------------------  
-------------------------------------------------------------
--------1-4-1------------------1-4-1-------------------------
-0-0-0--1-4-1--0-0-0----0-0-0--1-4-1--0-0-0----0-0-0--0-0-0--


Mick & James 1:02 - 1:12                (4x)
-------------------------------------------- 
-------------------------------------------- 
-------------------------------------------- 
-------------------------------------------- 
--------1-4-1------------------1-4-1-------- 
-0-0-0--1-4-1--0-0-0----0-0-0--1-4-1--0-0-0- 



James 1:12 - 1:33
-14--14-14-14---14-14-14---14-14-15-15--15-15-14-14-14-14---14-14-14-14-14--
--x---x--x--x----x-x--x----x--x--x--x---x--x---x--x--x--x----x--x--x---x--x--
-12--12-12-12---12-12-12---12-12-13-13--13-13--12-12-12-12---12-12-12--12-12--

-----------------------
-----------------------
-14--15-15-15---15-15--
--x---x--x--x----x-x--
-12--13-13-13---13-13--
-----------------------


Mick 1:33 - 1:38
----------12-------------------12-------------------12-------------------12--------
-12h13h15----0-0-12b--12h13h15----0-0-12b--12h13h15----0-0-12b--12h13h15----0-0-12b



Mick & James 1:38 - 1:54                                                (3x) 
--1-4-1----------0---1-4-1----------0---1-4-1----------0---1-4-1----------0--
--1-4-1--0-0--0--0---1-4-1--0-0--0--0---1-4-1--0-0--0--0---1-4-1--0-0--0--0--


James 1:54 - 2:14
-14--14-14-14---14-14-14---14-14-15-15--15-15-14-14-14-14---14-14-14-14-14--
--x---x--x--x----x-x--x----x--x--x--x---x--x---x--x--x--x----x--x--x---x--x--
-12--12-12-12---12-12-12---12-12-13-13--13-13--12-12-12-12---12-12-12--12-12--

-----------------------
-----------------------
-14--15-15-15---15-15--
--x---x--x--x----x-x--
-12--13-13-13---13-13--
-----------------------

Mick & James  2:14 - 2:17           (1x)
----------------------------------------
----------------------------------------
----------------------------------------
----------------------------------------
-----------------5-------------------5--
-0-0-0---0-0-0\6-----0-0-0---0-0-0\6----


Mick & James 2:17 - 2:27                                                           -----------------------------------------------------------------------------
-0-0-0----0-0-0--1-4-1--0-0-0----0-0-0--1-4-1--0-0-0----0-0-0--1-4-1--0-0-0--
-0-0-0----0-0-0--1-4-1--0-0-0----0-0-0--1-4-1--0-0-0----0-0-0--1-4-1--0-0-0--

-0-0-0--1-4-1--0-0-0----0-0-0--1-4-1--0-0-0----0-0-0--1-4-1--0-0-0--
-0-0-0--1-4-1--0-0-0----0-0-0--1-4-1--0-0-0----0-0-0--1-4-1--0-0-0--


----------------------
----------------------
----------------------
----------------------
-0-0-0--1-4-1--0-0-0--
-0-0-0--1-4-1--0-0-0--





Comments


Popular Slipknot tabs & chords
Confessions Intro Bass Tabs
Danger - Keep Away Bass Tabs
Eyeore Bass Tabs
Slipknot - Wait And Bleed Bass Tabs
Wait And Bleed Bass Tabs
Bitch Slap Tabs
Gently 1 Tabs
New Abortion Tabs
Tattered And Torn Tabs
The Song Called "Left Behind" Tabs


Song lyrics



↑ Back to top | Tablatures and chords are parodies/interpretations of the original songs. You may use it for private study, scholarship, research or language learning purposes only
© 2014 AZChords.com Contact us | Privacy policy | DMCA | Add/correct tabs | Request tabs | Top 50 tabs