>
 >
Dead Memories

Dead Memories Guitar Tabs

Slipknot - Dead Memories chords, tabs, tablatures, lyrics

Guitar lessons | Add/correct | Request | Top 50 tabs Artists:  A B C D E F G H I J K L M N O P Q R S T U V W X Y Z 0-9

Dead Memories Guitar Tabs – Slipknot

CD, Sheet music, Poster

Do you like Dead Memories? Share with your friends now
Bass TabsBass Tabs v2Bass Tabs v3Bass Tabs v4ChordsTabsTabs v2Tabs v3Tabs v4Ukulele
			     "Dead Memories" --- Slipknot







Tuning: B F# B E G# C# (low to high)



Key: C Major [C D E F G A B]



Legend:

... = palm mute
h = hammer on
p = pull off
b = bend
~ = vibrato
__ = hold bend
* = pinch harmonic
1 = whole step bend
.5 = half step bend
.25 = quarter step bend
1.5 = whole step and a half bend
2 = two step bend
/ = slide up
\ = slide down
! = feedback
[] = trill (repeatedly hammer on/pull off for a number of times)
pb = pre bend
h/ = pick once
p\ = pick once
h/p\ = pick once
p\h/ = pick once
() = note not picked / bent note back to normal



Intro:

Guitar 1:
C#|-----------------------------------------------------------------|
G#|-----------------------------------------------------------------|
E |-----------------------------------------------------------------|
B |-----8-----8---------8-----8---8-----8-----8---------8-----8---8-|
F#|---5-----5-----5---5-----5---------5-----5-----5---5-----5-------|
B |-5-----8-----6---5-----5-----5---5-----8-----6---5-----5-----5---|


Guitar 1:
C#|---------------------------------|
G#|---------------------------------|
E |---------------------------------|
B |-----8-----8---------8-----8---8-|
F#|---5-----5-----5---5-----5-------|
B |-5-----6-----8---5-----5-----5---|


Guitar 2:
C#|---------------------------------|
G#|---------------------------------|
E |---------------------------------|
B |---------------------------------|
F#|-----------------------------15p\|
B |-----------------------------15p\|

Guitars 1 and 2:
C#|----------------------------------|
G#|----------------------------------|
E |----------------------------------|
B |-5~~~~\8~~~~6~~~~-----------------|
F#|-5~~~~\8~~~~6~~~~-5-5-5-5-5-5-5-5-|
B |-5~~~~\8~~~~6~~~~-5-5-5-5-5-5-5-5-|
                     ...............

Guitar 3:
C#|------------------------------------------|
G#|------------------------------------------|
E |-7~~~~10~~~8~~~7h/14--14p\12--12p\7--7p\5-|
B |-x~~~~-x~~~x~~~x---x---x-------x--x--x--x-|
F#|-5~~~~-8~~~6~~~5h/12--12p\10--10p\5--5p\3-|
B |------------------------------------------|

Guitars 1 and 2:
C#|-----------------------------------------------------------------|
G#|-----------------------------------------------------------------|
E |-----------------------------------------------------------------|
B |-----8-----8---------8-----8---8-----8-----8---------8-----8---8-|
F#|---5-----5-----5---5-----5---------5-----5-----5---5-----5-------|
B |-5-----8-----6---5-----5-----5---5-----8-----6---5-----5-----5---|

Guitar 3:
C#|-----------------------------------|
G#|-----------------------------------|
E |-7~~~~~~~~~~~~~~~~~~~~~~~~~~~~~~~~~|
B |-x---------------------------------|
F#|-5~~~~~~~~~~~~~~~~~~~~~~~~~~~~~~~~~|
B |-----------------------------------|

Guitars 1 and 2:
C#|-------------------------------------------------|
G#|-------------------------------------------------|
E |-------------------------------------------------|
B |-----8-----8---------8-----8---8-----8-----8-----|
F#|---5-----5-----5---5-----5---------5-----5-----5-|
B |-5-----6-----8---5-----5-----5---5-----8-----6---|

Guitars 1 and 2:
C#|---------------------------------|
G#|---------------------------------|
E |---------------------------------|
B |---------------------------------|
F#|-5-5-5-5-5-5-5-5-5-5-5-5-5-5-5-5-|
B |-5-5-5-5-5-5-5-5-5-5-5-5-5-5-5-5-|
    ...............................

End of Intro.
Verse 1:

Guitars 1 and 2:
C#|-----------------------------------------------------------------------|
G#|-----------------------------------------------------------------------|
E |-----------------------------------------------------------------------|
B |-----8-----8---------8*-----8*---8*-----8-----8---------8*-----8*---8*-|
F#|---5-----5-----5---5------5-----------5-----5-----5---5------5---------|
B |-5-----8-----6---5------5------5----5-----8-----6---5------5------5----|
    ...................    ...    .    ...................    ...    .

Guitars 1 and 2:
C#|-----------------------------------------------------------------------|
G#|-----------------------------------------------------------------------|
E |-----------------------------------------------------------------------|
B |-----8-----8---8-----8*-----8*---8*-----8-----8---------8*-----8*---8*-|
F#|---5-----5---------5------5-----------5-----5-----5---5------5---------|
B |-5-----6-----8---5------5------5----5-----8-----6---5------5------8----|
    ...................    ...    .    ...................    ...    .

Guitars 1 and 2:
C#|-----------------------------------------------------------------------|
G#|-----------------------------------------------------------------------|
E |-----------------------------------------------------------------------|
B |---------------------8*-----8*---8*---------------------8*-----8*---8*-|
F#|-5-5-5-5-5-5-5-5-5-5----5-5----5----5-5-5-5-5-5-5-5-5-5----5-5----5----|
B |-5-5-5-8-8-8-6-6-5-5----5-5----5----5-5-5-8-8-8-6-6-5-5----5-5----5----|
    ...................    ...    .    ...................    ...    .

Guitars 1 and 2:
C#|-----------------------------------------------------------------------|
G#|-----------------------------------------------------------------------|
E |-----------------------------------------------------------------------|
B |---------------------8*-----8*---8*---------------------8*-----8*---8*-|
F#|-5-5-5-5-5-5-5-5-5-5----5-5----5----5-5-5-5-5-5-5-5-5-5----5-5----5----|
B |-5-5-5-6-6-6-8-8-5-5----5-5----5----5-5-5-8-8-8-6-6-5-5----5-5----5----|
    ...................    ...    .    ...................    ...    .


End of Verse 1.
Pre Chorus 1:

Guitar 1:
C#|--------------------------------------------------------------------------|
G#|--------------------------------------------------------------------------|
E |--------------------------------------------------------------------------|
B |--------------0-------6-6-6-6-6-6-6---------------0-------6-6-6-----------| x2
F#|--------------0-0-0-0-6-6-6-6-6-6-6---------------0-0-0-0-6-6-6--/6-3-----|
B |-5-8-7--3*~~~-0-0-0-0-6-6-6-6-6-6-6--5-8-7--3*~~~-0-0-0-0-6-6-6-------4-0-|
    .              .....                .              .....  

Guitar 2:
C#|------------------------------------------------------------------------------|
G#|------------------------------------------------------------------------------|
E |------------------------------------------------------------------------------|
B |----------------0-------6-6-6-6-6-6-6-----------------0-------6-6-6-----------| x2
F#|----------------0-0-0-0-6-6-6-6-6-6-6-----------------0-0-0-0-6-6-6--/6-3-----|
B |-5-8*-7*--3*~~~-0-0-0-0-6-6-6-6-6-6-6--5-8*-7*--3*~~~-0-0-0-0-6-6-6-------4-0-|
    .                .....                .                .....     

End of Pre Chorus 1.
Chorus 1:

Guitar 1:
C#|-----------------------------------------------------------------|
G#|-----------------------------------------------------------------|
E |-----------------------3-3-3-3-3-----------------5-5-5-5-5-5-5-5-|
B |-5-5-5-5-5-5-5-5-1-1-1-3-3-3-3-3-0-0-0-0-0-0-0-0-5-5-5-5-5-5-5-5-|
F#|-5-5-5-5-5-5-5-5-1-1-1-1-1-1-1-1-0-0-0-0-0-0-0-0-3-3-3-3-3-3-3-3-|
B |-5-5-5-5-5-5-5-5-1-1-1-----------0-0-0-0-0-0-0-0-----------------|


Guitar 2:
C#|-------------------------------------------------------------------------------------------------|
G#|-------------------------------------------------------------------------------------------------|
E |-15-15-15\14-14-14/10-10/12-12-12/14-14-14/15-15-15-15-15\14-14-14\10-10/12-12-12/14-14-14/15-15-|
B |--x--x--x--x--x--x--x--x--x--x--x--x--x--x--x--x--x--x--x--x--x--x--x--x--x--x--x--x--x--x--x--x-|
F#|-13-13-13\12-12-12/-8--8/10-10-10/12-12-12/13-13-13-13-13\12-12-12\-8--8/10-10-10/12-12-12/13-13-|
B |-------------------------------------------------------------------------------------------------|


Guitar 1:
C#|----------------------------------------------------|
G#|----------------------------------------------------|
E |-----------------------3-3-3-3-3--------------------|
B |-5-5-5-5-5-5-5-5-1-1-1-3-3-3-3-3-3~~~-2~~~-1~~~-0~~~|
F#|-5-5-5-5-5-5-5-5-1-1-1-1-1-1-1-1-3~~~-2~~~-1~~~-0~~~|
B |-5-5-5-5-5-5-5-5-1-1-1-----------3~~~-2~~~-1~~~-0~~~|


Guitar 2:
C#|-----------------------------------------------------------------------------------|
G#|-----------------------------------------------------------------------------------|
E |-15-15-15\14-14-14\10-10-10/12-12-12/14-14-14/15-15-15~~-14~~-15~~-15~~-14~~-------|
B |--x--x--x--x--x--x--x--x--x--x--x--x--x--x--x--x--x--x----x----x----x----x---14-14-|
F#|-13-13-13\12-12-12\-8--8--8/10-10-10/12-12-12/13-13-13~~-12~~-13~~-13~~-12~~--x--x-|
B |-----------------------------------------------------------------------------12-12-|


End of Chorus 1.
Break 1:

Guitars 1 and 2:
C#|-------------------------------------------------|
G#|-------------------------------------------------|
E |-------------------------------------------------|
B |-----8-----8---------8-----8---8-----8-----8-----|
F#|---5-----5-----5---5-----5---------5-----5-----5-|
B |-5-----8-----6---5-----5-----5---5-----8-----6---|


Guitar 1:
C#|-----------------------------------|
G#|-----------------------------------|
E |-----------------------------------|
B |-----------------------------------|
F#|-5-5-5-5-5-5-5-5-5-5-5-5-5-5-------|
B |-5-5-5-5-5-5-5-5-5-5-5-5-5-5--12p\-|
    ...........................

Guitar 2:
C#|---------------------------------|
G#|---------------------------------|
E |---------------------------------|
B |---------------------------------|
F#|-5-5-5-5-5-5-5-5-5-5-5-5-5-5-5-5-|
B |-5-5-5-5-5-5-5-5-5-5-5-5-5-5-5-5-|
    ...............................

End of Break 1.
Verse 2:

Guitar 1:
C#|-----------------------------------------------------------------|
G#|-----------------------------------------------------------------|
E |-----------------------------------------------------------------|
B |-----------------------------------------------------------------|
F#|-5-5-5-5-5-5-8-8-8-8-8-8-6-6-6-6-5-5-5-5-8-8-5-5-5-5-8-8-5-5-8-8-|
B |-----------------------------------------------------------------|
    ...............................................................



Guitar 2:
C#|-----------------------------------------------------------------|
G#|-----------------------------------------------------------------|
E |-----------------------------------------------------------------|
B |-----------------------------------------------------------------|
F#|-----------------------------------------------------------------|
B |-5-5-5-5-5-5-8-8-8-8-8-8-6-6-6-6-5-5-5-5-8-8-5-5-5-5-8-8-5-5-8-8-|
    ...............................................................


Guitar 1:
C#|-------------------------------------------------------------------------------------------------|
G#|-------------------------------------------------------------------------------------------------|
E |-------------------------------------------------------------------------------------------------|
B |-------------------------------------------------------------------------------------------------|
F#|-5-5-5-5-5-5-8-8-8-8-8-8-6-6-6-6-5-5-5-5-8-8-5-5-5-5-8-8-5-5-8-8-5-5-5-5-5-5-6-6-6-6-6-6-8-8-8-8-|
B |-------------------------------------------------------------------------------------------------|
    ...............................................................................................


Guitar 2:
C#|-------------------------------------------------------------------------------------------------|
G#|-------------------------------------------------------------------------------------------------|
E |-------------------------------------------------------------------------------------------------|
B |-------------------------------------------------------------------------------------------------|
F#|-------------------------------------------------------------------------------------------------|
B |-5-5-5-5-5-5-8-8-8-8-8-8-6-6-6-6-5-5-5-5-8-8-5-5-5-5-8-8-5-5-8-8-5-5-5-5-5-5-6-6-6-6-6-6-8-8-8-8-|
    ...............................................................................................

Guitar 1:
C#|-------------------------------------------------------------------------------------------------|
G#|-------------------------------------------------------------------------------------------------|
E |-------------------------------------------------------------------------------------------------|
B |-------------------------------------------------------------------------------------------------|
F#|-5-5-5-5-8-8-5-5-5-5-8-8-5-5-8-8-5-5-5-5-5-5-8-8-8-8-8-8-6-6-6-6-5-5-5-5-8-8-5-5-5-5-8-8-5-5-8-8-|
B |-------------------------------------------------------------------------------------------------|
    ...............................................................................................

Guitar 2:
C#|-------------------------------------------------------------------------------------------------|
G#|-------------------------------------------------------------------------------------------------|
E |-------------------------------------------------------------------------------------------------|
B |-------------------------------------------------------------------------------------------------|
F#|-------------------------------------------------------------------------------------------------|
B |-5-5-5-5-8-8-5-5-5-5-8-8-5-5-8-8-5-5-5-5-5-5-8-8-8-8-8-8-6-6-6-6-5-5-5-5-8-8-5-5-5-5-8-8-5-5-8-8-|
    ...............................................................................................

End of Verse 2.
Pre Chorus 2:

Guitar 1:
C#|--------------------------------------------------------------------------|
G#|--------------------------------------------------------------------------|
E |--------------------------------------------------------------------------|
B |--------------0-------6-6-6-6-6-6-6---------------0-------6-6-6-----------| x2
F#|--------------0-0-0-0-6-6-6-6-6-6-6---------------0-0-0-0-6-6-6--/6-3-----|
B |-5-8-7--3*~~~-0-0-0-0-6-6-6-6-6-6-6--5-8-7--3*~~~-0-0-0-0-6-6-6-------4-0-|
    .              .....                .              .....  

Guitar 2:
C#|------------------------------------------------------------------------------|
G#|------------------------------------------------------------------------------|
E |------------------------------------------------------------------------------|
B |----------------0-------6-6-6-6-6-6-6-----------------0-------6-6-6-----------| x2
F#|----------------0-0-0-0-6-6-6-6-6-6-6-----------------0-0-0-0-6-6-6--/6-3-----|
B |-5-8*-7*--3*~~~-0-0-0-0-6-6-6-6-6-6-6--5-8*-7*--3*~~~-0-0-0-0-6-6-6-------4-0-|
    .                .....                .                .....     

End of Pre Chorus 2.
Chorus 2:

Guitar 1:
C#|-----------------------------------------------------------------|
G#|-----------------------------------------------------------------|
E |-----------------------3-3-3-3-3-----------------5-5-5-5-5-5-5-5-|
B |-5-5-5-5-5-5-5-5-1-1-1-3-3-3-3-3-0-0-0-0-0-0-0-0-5-5-5-5-5-5-5-5-|
F#|-5-5-5-5-5-5-5-5-1-1-1-1-1-1-1-1-0-0-0-0-0-0-0-0-3-3-3-3-3-3-3-3-|
B |-5-5-5-5-5-5-5-5-1-1-1-----------0-0-0-0-0-0-0-0-----------------|


Guitar 2:
C#|-------------------------------------------------------------------------------------------------|
G#|-------------------------------------------------------------------------------------------------|
E |-15-15-15\14-14-14/10-10/12-12-12/14-14-14/15-15-15-15-15\14-14-14\10-10/12-12-12/14-14-14/15-15-|
B |--x--x--x--x--x--x--x--x--x--x--x--x--x--x--x--x--x--x--x--x--x--x--x--x--x--x--x--x--x--x--x--x-|
F#|-13-13-13\12-12-12/-8--8/10-10-10/12-12-12/13-13-13-13-13\12-12-12\-8--8/10-10-10/12-12-12/13-13-|
B |-------------------------------------------------------------------------------------------------|


Guitar 1:
C#|----------------------------------------------------|
G#|----------------------------------------------------|
E |-----------------------3-3-3-3-3--------------------|
B |-5-5-5-5-5-5-5-5-1-1-1-3-3-3-3-3-3~~~-2~~~-1~~~-0~~~|
F#|-5-5-5-5-5-5-5-5-1-1-1-1-1-1-1-1-3~~~-2~~~-1~~~-0~~~|
B |-5-5-5-5-5-5-5-5-1-1-1-----------3~~~-2~~~-1~~~-0~~~|


Guitar 2:
C#|-----------------------------------------------------------------------------------|
G#|-----------------------------------------------------------------------------------|
E |-15-15-15\14-14-14\10-10-10/12-12-12/14-14-14/15-15-15~~-14~~-15~~-15~~-14~~-------|
B |--x--x--x--x--x--x--x--x--x--x--x--x--x--x--x--x--x--x----x----x----x----x---14-14-|
F#|-13-13-13\12-12-12\-8--8--8/10-10-10/12-12-12/13-13-13~~-12~~-13~~-13~~-12~~--x--x-|
B |-----------------------------------------------------------------------------12-12-|


Guitar 1:
C#|-----------------------------------------------------------------|
G#|-----------------------------------------------------------------|
E |-----------------------3-3-3-3-3-----------------5-5-5-5-5-5-5-5-|
B |-5-5-5-5-5-5-5-5-1-1-1-3-3-3-3-3-0-0-0-0-0-0-0-0-5-5-5-5-5-5-5-5-|
F#|-5-5-5-5-5-5-5-5-1-1-1-1-1-1-1-1-0-0-0-0-0-0-0-0-3-3-3-3-3-3-3-3-|
B |-5-5-5-5-5-5-5-5-1-1-1-----------0-0-0-0-0-0-0-0-----------------|


Guitar 2:
C#|-------------------------------------------------------------------------------------------------|
G#|-------------------------------------------------------------------------------------------------|
E |-15-15-15\14-14-14/10-10/12-12-12/14-14-14/15-15-15-15-15\14-14-14\10-10/12-12-12/14-14-14/15-15-|
B |--x--x--x--x--x--x--x--x--x--x--x--x--x--x--x--x--x--x--x--x--x--x--x--x--x--x--x--x--x--x--x--x-|
F#|-13-13-13\12-12-12/-8--8/10-10-10/12-12-12/13-13-13-13-13\12-12-12\-8--8/10-10-10/12-12-12/13-13-|
B |-------------------------------------------------------------------------------------------------|


Guitar 1:
C#|----------------------------------------------------|
G#|----------------------------------------------------|
E |-----------------------3-3-3-3-3--------------------|
B |-5-5-5-5-5-5-5-5-1-1-1-3-3-3-3-3-3~~~-2~~~-1~~~-0~~~|
F#|-5-5-5-5-5-5-5-5-1-1-1-1-1-1-1-1-3~~~-2~~~-1~~~-0~~~|
B |-5-5-5-5-5-5-5-5-1-1-1-----------3~~~-2~~~-1~~~-0~~~|


Guitar 2:
C#|-----------------------------------------------------------------------------------|
G#|-----------------------------------------------------------------------------------|
E |-15-15-15\14-14-14\10-10-10/12-12-12/14-14-14/15-15-15~~-14~~-15~~-15~~-14~~-------|
B |--x--x--x--x--x--x--x--x--x--x--x--x--x--x--x--x--x--x----x----x----x----x---14-14-|
F#|-13-13-13\12-12-12\-8--8--8/10-10-10/12-12-12/13-13-13~~-12~~-13~~-13~~-12~~--x--x-|
B |-----------------------------------------------------------------------------12-12-|


End of Chorus 2.
Break 2:

Guitars 1 and 2:
C#|-------------------------------------------------|
G#|-------------------------------------------------|
E |-------------------------------------------------|
B |-----8-----8---------8-----8---8-----8-----8-----|
F#|---5-----5-----5---5-----5---------5-----5-------|
B |-5-----8-----6---5-----5-----5---5-----8-----6-0-|



Guitars 1 and 2:
C#|-----------------------------------------------------------------|
G#|-----------------------------------------------------------------|
E |-----------------------------------------------------------------|
B |-----------------------------------------------------------------|
F#|---5-5---5-5---5---5-5---5-5---5---5-5---5-5---5---5-5---5-5---5-|
B |-6-----6-----6---6-----6-----6---6-----6-----6---6-----6-----6---|
    .     .     .   .     .     .   .     .     .   .     .     .


End of Break 2.
Guitar Solo 1 (Jim Root):

Guitar 1:
             1__  .5     1________    1____                       
C#|-----10--------------------------13b---(13)p11-13~~~~~11h13-11~~~~~~~|
G#|--------13b~~13pb--13pb~~~~~~~~x-------------------------------------|
E |-/13---------------------------x-------------------------------------|
B |---------------------------------------------------------------------|
F#|---------------------------------------------------------------------|
B |---------------------------------------------------------------------|


Guitar 2:
C#|----------------------------------------------------------------------------|
G#|----------------------------------------------------------------------------|
E |----------------------------------------------------------------------------|
B |----------------0-------6-6-6-6-6-6-6-----------------0-------6-6-6-6-6-6-6-|
F#|----------------0-0-0-0-6-6-6-6-6-6-6-----------------0-0-0-0-6-6-6-6-6-6-6-|
B |-5-8*-7*--3*~~~-0-0-0-0-6-6-6-6-6-6-6--5-8*-7*--3*~~~-0-0-0-0-6-6-6-6-6-6-6-|
    .                .....                .                .....     

Guitar 1:
C#|-/10h11h13p11p10h11p10------------------------------------------------|
G#|----------------------13p11p10h11p10p\8-------------------------------|
E |---------------------------------------10p8h10p8p7--8h10p8h10p8p7-7-7-|
B |--------------------------------------------------10-------------8----|
F#|----------------------------------------------------------------------|
B |----------------------------------------------------------------------|
                                                                    ....

Guitar 1 Continued:
C#|----------------------------|
G#|----------------------------|
E |-7h8-7h8p7-8p7-8p7-7-/12~~~~|
B |----------------------------|
F#|----------------------------|
B |----------------------------|


Guitar 2:
C#|----------------------------------------------------------------------------|
G#|----------------------------------------------------------------------------|
E |----------------------------------------------------------------------------|
B |----------------0-------6-6-6-6-6-6-6-----------------0-------6-6-6-6-6-6-6-|
F#|----------------0-0-0-0-6-6-6-6-6-6-6-----------------0-0-0-0-6-6-6-6-6-6-6-|
B |-5-8*-7*--3*~~~-0-0-0-0-6-6-6-6-6-6-6--5-8*-7*--3*~~~-0-0-0-0-6-6-6-6-6-6-6-|
    .                .....                .                .....

Guitar 1:
C#|-----------------------------------------------------------------------------------------------|
G#|-----------------------------------------------------------------------------------------------|
E |------7~~5/10~~\5/7~~\5/8~~5h/7-\5~~~----/17-15-15\14~~~\12-12---------------------------------|
B |------x--x--x---x-x---x-x--x--x--x-----------------------------12-12\10-10/15-15\12-12\10/12~~~|
F#|-13p\-5~~3/-8~~\3/5~~\3/6~~3h/5-\3~~~5p\-------------------------------------------------------|
B |-----------------------------------------------------------------------------------------------|


Guitar 2:
C#|-----------------------------------------------------------------------------|
G#|-----------------------------------------------------------------------------|
E |-----------------------------------------------------------------------------|
B |----------------0-------6-6-6-6-6-6-6-----------------0-------6-6-6----------|
F#|----------------0-0-0-0-6-6-6-6-6-6-6-----------------0-0-0-0-6-6-6--6-3-----|
B |-5-8*-7*--3*~~~-0-0-0-0-6-6-6-6-6-6-6--5-8*-7*--3*~~~-0-0-0-0-6-6-6------4-0-|
    .                .....                .                .....

End of Guitar Solo 1.
Interlude: 

Guitar 3:
C#|-----------------------------------------------------------|
G#|-10~~~~~~~~10~~~~~11~~~~~10~~~~~~~~10~~~~~~~11~~~~~~~~~~~~~|
E |-----------------------------------------------------------|
B |------------8~~~~~~8~~~~~10~~~~~~~~12~~~~~~~---------------|
F#|-10~~~~~~~~------------------------------------------------|
B |-----------------------------------------------------------|

Guitar 4:
C#|-6~~~~~5~~~~~~~-----------5~~~~~~~6~~~~~~8~~~~~~5~~~~~----------7~~~~8~~~~|
G#|---------------6\------------------------------------------8~~~~----------|
E |------------------------------------------------------8~~~~7~~~~----------|
B |-------0~~~~~~~--------------------------0~~~~~~~~~~~~-----0~~~~----------|
F#|-0~~~~~-------------------------------------------------------------------|
B |-------------------8~~~~~~------------------------------------------------|


Guitar 3: Play whole bar once, and then play the first half of the bar once.
C#|---------------------------|----------------------------------|
G#|-10~~~~~~~~10~~~~~~11~~~~~~|10~~~~~~~~10~~~~~~~11~~~~~~~~~~~~~|
E |---------------------------|----------------------------------|
B |------------8~~~~~~8~~~~~~~|10~~~~~~~~12~~~~~~~---------------|
F#|-10~~~~~~~~----------------|----------------------------------|
B |---------------------------|----------------------------------|


Guitar 4: Play whole bar once, and then play the first half of the bar once.
C#|-6~~~~~~5~~~~~~~----------5~~~~~~~6~~~~~~|8~~~~~~5~~~~~-----------7~~~~8~~~~|
G#|----------------6\-----------------------|-------------------8~~~~----------|
E |-----------------------------------------|-------------8~~~~~7~~~~----------|
B |--------0~~~~~~~-------------------------|0~~~~~~~~~~~~------0~~~~----------|
F#|-0~~~~~~---------------------------------|----------------------------------|
B |-------------------8~~~~~~---------------|----------------------------------|


Piano (Sid):
C#|---------------------------------------------------------------------|
G#|-15~~~~~16~~~~15~~~~~15~~~~~~~~~~16~~~~15~~~~~~15~~~~~~16~~~~~15~~~~~|
E |---------------------------------------------------------------------|
B |---------------------------------------------------------------------|
F#|---------------------------------------------------------------------|
B |---------------------------------------------------------------------|


Guitar 1:
C#|-------------------------------|
G#|-------------------------------|
E |-------------------------------|
B |------3~~~~-2~~~~-1~~~~-0~~~~~~|
F#|-12p\-3~~~~-2~~~~-1~~~~-0~~~~~~|
B |-12p\-3~~~~-2~~~~-1~~~~-0~~~~~~|

Guitar 2:
C#|--------------------------------------------|
G#|--------------------------------------------|
E |------15~~~-14~~~-15--15~~~~~-14~~~~--------|
B |-------x-----x-----x---x--------------14-14-|
F#|-12p\-13~~~-12~~~-13--13~~~~~-12~~~~---x--x-|
B |-12p\---------------------------------12-12-|

End of Interlude.
Chorus 3:

Guitar 1:
C#|-----------------------------------------------------------------|
G#|-----------------------------------------------------------------|
E |-----------------------3-3-3-3-3-----------------5-5-5-5-5-5-5-5-|
B |-5-5-5-5-5-5-5-5-1-1-1-3-3-3-3-3-0-0-0-0-0-0-0-0-5-5-5-5-5-5-5-5-|
F#|-5-5-5-5-5-5-5-5-1-1-1-1-1-1-1-1-0-0-0-0-0-0-0-0-3-3-3-3-3-3-3-3-|
B |-5-5-5-5-5-5-5-5-1-1-1-----------0-0-0-0-0-0-0-0-----------------|


Guitar 2:
C#|-------------------------------------------------------------------------------------------------|
G#|-------------------------------------------------------------------------------------------------|
E |-15-15-15\14-14-14/10-10/12-12-12/14-14-14/15-15-15-15-15\14-14-14\10-10/12-12-12/14-14-14/15-15-|
B |--x--x--x--x--x--x--x--x--x--x--x--x--x--x--x--x--x--x--x--x--x--x--x--x--x--x--x--x--x--x--x--x-|
F#|-13-13-13\12-12-12/-8--8/10-10-10/12-12-12/13-13-13-13-13\12-12-12\-8--8/10-10-10/12-12-12/13-13-|
B |-------------------------------------------------------------------------------------------------|


Guitar 1:
C#|----------------------------------------------------|
G#|----------------------------------------------------|
E |-----------------------3-3-3-3-3--------------------|
B |-5-5-5-5-5-5-5-5-1-1-1-3-3-3-3-3-3~~~-2~~~-1~~~-0~~~|
F#|-5-5-5-5-5-5-5-5-1-1-1-1-1-1-1-1-3~~~-2~~~-1~~~-0~~~|
B |-5-5-5-5-5-5-5-5-1-1-1-----------3~~~-2~~~-1~~~-0~~~|


Guitar 2:
C#|-----------------------------------------------------------------------------------|
G#|-----------------------------------------------------------------------------------|
E |-15-15-15\14-14-14\10-10-10/12-12-12/14-14-14/15-15-15~~-14~~-15~~-15~~-14~~-------|
B |--x--x--x--x--x--x--x--x--x--x--x--x--x--x--x--x--x--x----x----x----x----x---14-14-|
F#|-13-13-13\12-12-12\-8--8--8/10-10-10/12-12-12/13-13-13~~-12~~-13~~-13~~-12~~--x--x-|
B |-----------------------------------------------------------------------------12-12-|


Guitar 1:
C#|-----------------------------------------------------------------|
G#|-----------------------------------------------------------------|
E |-----------------------3-3-3-3-3-----------------5-5-5-5-5-5-5-5-|
B |-5-5-5-5-5-5-5-5-1-1-1-3-3-3-3-3-0-0-0-0-0-0-0-0-5-5-5-5-5-5-5-5-|
F#|-5-5-5-5-5-5-5-5-1-1-1-1-1-1-1-1-0-0-0-0-0-0-0-0-3-3-3-3-3-3-3-3-|
B |-5-5-5-5-5-5-5-5-1-1-1-----------0-0-0-0-0-0-0-0-----------------|


Guitar 2:
C#|-------------------------------------------------------------------------------------------------|
G#|-------------------------------------------------------------------------------------------------|
E |-15-15-15\14-14-14/10-10/12-12-12/14-14-14/15-15-15-15-15\14-14-14\10-10/12-12-12/14-14-14/15-15-|
B |--x--x--x--x--x--x--x--x--x--x--x--x--x--x--x--x--x--x--x--x--x--x--x--x--x--x--x--x--x--x--x--x-|
F#|-13-13-13\12-12-12/-8--8/10-10-10/12-12-12/13-13-13-13-13\12-12-12\-8--8/10-10-10/12-12-12/13-13-|
B |-------------------------------------------------------------------------------------------------|


Guitar 1:
C#|----------------------------------------------------|
G#|----------------------------------------------------|
E |-----------------------3-3-3-3-3--------------------|
B |-5-5-5-5-5-5-5-5-1-1-1-3-3-3-3-3-3~~~-2~~~-1~~~-0~~~|
F#|-5-5-5-5-5-5-5-5-1-1-1-1-1-1-1-1-3~~~-2~~~-1~~~-0~~~|
B |-5-5-5-5-5-5-5-5-1-1-1-----------3~~~-2~~~-1~~~-0~~~|


Guitar 2:
C#|-----------------------------------------------------------------------------------|
G#|-----------------------------------------------------------------------------------|
E |-15-15-15\14-14-14\10-10-10/12-12-12/14-14-14/15-15-15~~-14~~-15~~-15~~-14~~-------|
B |--x--x--x--x--x--x--x--x--x--x--x--x--x--x--x--x--x--x----x----x----x----x---14-14-|
F#|-13-13-13\12-12-12\-8--8--8/10-10-10/12-12-12/13-13-13~~-12~~-13~~-13~~-12~~--x--x-|
B |-----------------------------------------------------------------------------12-12-|

End of Chorus 3.
Outro:

Guitar Solo 2 (Jim Root):

Guitar 3:
                                                          1___                        1___
C#|-------------------------------------------------------------------------------------------|
G#|-15h16p15p13-15~~~~~~13-15-15h16p15p13-15~~~~~~13-15-16b--(16)-16p15-15p13\11-13-13b--(13)-|
E |-------------------------------------------------------------------------------------------|
B |-------------------------------------------------------------------------------------------|
F#|-------------------------------------------------------------------------------------------|
B |-------------------------------------------------------------------------------------------|


Guitar 1:
C#|-----------------------------------------------------------------|
G#|-----------------------------------------------------------------|
E |-----------------------3-3-3-3-3-----------------5-5-5-5-5-5-5-5-|
B |-5-5-5-5-5-5-5-5-1-1-1-3-3-3-3-3-0-0-0-0-0-0-0-0-5-5-5-5-5-5-5-5-|
F#|-5-5-5-5-5-5-5-5-1-1-1-1-1-1-1-1-0-0-0-0-0-0-0-0-3-3-3-3-3-3-3-3-|
B |-5-5-5-5-5-5-5-5-1-1-1-----------0-0-0-0-0-0-0-0-----------------|


Guitar 2:
C#|-------------------------------------------------------------------------------------------------|
G#|-------------------------------------------------------------------------------------------------|
E |-15-15-15\14-14-14/10-10/12-12-12/14-14-14/15-15-15-15-15\14-14-14\10-10/12-12-12/14-14-14/15-15-|
B |--x--x--x--x--x--x--x--x--x--x--x--x--x--x--x--x--x--x--x--x--x--x--x--x--x--x--x--x--x--x--x--x-|
F#|-13-13-13\12-12-12/-8--8/10-10-10/12-12-12/13-13-13-13-13\12-12-12\-8--8/10-10-10/12-12-12/13-13-|
B |-------------------------------------------------------------------------------------------------|


Guitar 3:
C#|-------------------------------------------------------------------------|
G#|-11h13-11h13p11p\10-11h13-10h/11-10-------13p11p10----11h13-11-10~~~~11\-|
E |------------------------------------12~~~~---------12--------------------|
B |-------------------------------------------------------------------------|
F#|-------------------------------------------------------------------------|
B |-------------------------------------------------------------------------|

Guitar 1:
C#|---------------------------------|
G#|---------------------------------|
E |-----------------------3-3-3-3-3-|
B |-5-5-5-5-5-5-5-5-1-1-1-3-3-3-3-3-|
F#|-5-5-5-5-5-5-5-5-1-1-1-1-1-1-1-1-|
B |-5-5-5-5-5-5-5-5-1-1-1-----------|


Guitar 2:
B |----------------------------------------------------|
F#|----------------------------------------------------|
D |-15-15-15\14-14-14\10-10-10/12-12-12/14-14-14/15-15-|
A |--x--x--x--x--x--x--x--x--x--x--x--x--x--x--x--x--x-|
E |-13-13-13\12-12-12\-8--8--8/10-10-10/12-12-12/13-13-|
B |----------------------------------------------------|

End of Guitar Solo 2.
Guitar 3: Use delay only on the last note (8p\).
C#|--------------------------------------------------------------------------|
G#|--------------------------------------------------------------------------|
E |-10~~~~~9~~~~~~~~---------------------------------------------------------|
B |-----------------13~~~~~~12~~~~~~~~~~~~~~~~~~~~~~(12)!~~~~~~~~--x12-------|
F#|--------------------------------------------------------------[5h8p5]-8p\-|
B |--------------------------------------------------------------------------|

Guitar 1:
C#|----------------------------------------------------------------|
G#|----------------------------------------------------------------|
E |----------------------------------------------------------------|
B |-3~~~~-2~~~~-1~~~~-0~~~~~~~~~~~~~~~~~~~~~~~~~(0)!~~~~~~~~~~~~~~~|
F#|-3~~~~-2~~~~-1~~~~-0~~~~~~~~~~~~~~~~~~~~~~~~~(0)!~~~~~~~~~~~~~~~|
B |-3~~~~-2~~~~-1~~~~-0~~~~~~~~~~~~~~~~~~~~~~~~~(0)!~~~~~~~~~~~~~~~|


Guitar 2:
C#|----------------------------------------------------------------|
G#|----------------------------------------------------------------|
E |-15~~~~-14~~~~-15~~~~-15~~~~-14~~~~~~~~~~~~~(14)!~~~~~~~~~~~~~~~|
B |--x------x------x------x------x---------------------------------|
F#|-13~~~~-12~~~~-13~~~~-13~~~~-12~~~~~~~~~~~~~(12)!~~~~~~~~~~~~~~~|
B |----------------------------------------------------------------|


End of Song.

Please Rate and Comment My Tab.
Thanks.
[travis]





Comments


Popular Slipknot tabs & chords
Gently Bass Tabs
Psychosocial 3 Bass Tabs
Skin Ticket 2 Bass Tabs
Snuff 10 Chords
Duality 4 Tabs
Gehenna Intro Tabs
People = Sh*T Tabs
Slipnkot Tabs
Spit It Out 1 Tabs
Wait And Bleed Ukulele


Song lyrics



↑ Back to top | Tablatures and chords are parodies/interpretations of the original songs. You may use it for private study, scholarship, research or language learning purposes only
© 2014 AZChords.com Contact us | Privacy policy | DMCA | Add/correct tabs | Request tabs | Top 50 tabs