>
 >
Regrets

Regrets Bass Tabs

Slick Shoes - Regrets chords, tabs, tablatures, lyrics

Guitar lessons | Add/correct | Request | Top 50 tabs Artists:  A B C D E F G H I J K L M N O P Q R S T U V W X Y Z 0-9

Regrets Bass Tabs – Slick Shoes

CD, Sheet music, Poster

Do you like Regrets? Share with your friends now
Bass Tabs
Begining:
G: ------------------------------
D: ------------------------------
A: ------------------------------
E: --00-0-00-0-00-0-00-0-00-0-00-

Intro:
G: ---------------------------
D: ---------------------------
A: --66-6-66-6-66-6-6-6-------
E: ---------------------------

Verse:
G: -------------------------------------------------
D: -------------------------------------------------
A: --66666666--------------------------------------- x2
E: ---------------66666666--44444444--4444--6666----

Pre-Chorus:
G: -------------------------------------------
D: -------------------------------------------
A: --6--5---------------66--88----------------
E: ---------66666666------------4444444-6-----

Chorus:
G:--------------------------------------------------------------------------------------
D:--------------------------------------------------------------------------------------
A:--6666---------6666--5555--6666-------6666--5555--6666--------6666--5555--6666--------
E:---------6666--------------------6666-------------------6666--------------------6666--

Continued....
G: -----------------------------------
D: -----------------------------------
A: --66666666---6-----6666666---------
E: ----------------6-------------6----

Verse
Pre-Chorus
Chorus

Bridge:
G:----------------------------------------------------------------------------------
D:----------------------------------------------------------------------------------
A:--66666666------------66666666--88888888--6666-6666-6666-6666--66666666--88888888-
E:------------66666666--------------------------------------------------------------

Pre-Chorus
Chorus


*** It's a real easy song to play !
*** It songs good too !





Comments


Popular Slick Shoes tabs & chords
Fall 1 Bass Tabs
Learn To Unlearn Bass Tabs
Losing Sight 1 Bass Tabs
Walk Out Bass Tabs
Angel Tabs
Angel 1 Tabs
For Better, For Worse Tabs
Have I Said To Much Tabs
Now's The Time Tabs
Remember Tabs


Song lyrics



↑ Back to top | Tablatures and chords are parodies/interpretations of the original songs. You may use it for private study, scholarship, research or language learning purposes only
© 2014 AZChords.com Contact us | Privacy policy | DMCA | Add/correct tabs | Request tabs | Top 50 tabs