» » »

Slick Shoes, Once Again Tabs (ver.1)

Artists:  A B C D E F G H I J K L M N O P Q R S T U V W X Y Z # 

Once Again Tabs (ver.1)

Slick Shoes Tabs
Rating:
3/5 (1 vote)
Once Again lessons Tabs too difficult? Try these video lessons and learn fast
                -----------------------------------------------------------------------------
-----------------------------------------------------------------------------

Tuning:standard
INTRO(rythm and lead):
e|--------------------------------------------------------------------------|
B|--------------------------------------------------------------------------|
G|-55555555-5555555---------------------------------------------------------|
D|-55555555-5555555---------------------------------------------------------|
A|-33333333-3333333---------------------------------------------------------|
E|--------------------------------------------------------------------------|
  PM...............
INTRO(lead):
e|-------------|------------------------------------------------------------|
B|----6---6----|-5----------------------------------------------------------|
G|-5----5---5--|---5-7-5-7-5------------------------------------------------|
D|--5----------|------------------------------------------------------------|
A|-------------|------------------------------------------------------------|
E|-------------|------------------------------------------------------------|
INTRO(rythm):
e|--------------------------------------------------------------------------|
B|--------------------------------------------------------------------------|
G|-555-----555--------------------------------------------------------------|
D|-555-333-555-555----------------------------------------------------------|
A|-333-333-333-555----------------------------------------------------------|
E|-----111-----333----------------------------------------------------------|
VERSE(lead):
e|--------------------------------------------------------------------------|
B|--------------------------------------------------------------------------|
G|-5555555-4-5-555-4-5-555--------------------------------------------------|
D|-5555555-5-5-555-5-5-555--------------------------------------------------|
A|-3333333-2p3-333-2p3-333--------------------------------------------------|
E|--------------------------------------------------------------------------|
VERSE(rythm):
e|--------------------------------------------------------------------------|
B|--------------------------------------------------------------------------|
G|-55555555-----------------------------------------------------------------|
D|-55555555-77777777-55555555-----------------------------------------------|
A|-33333333-77777777-55555555-----------------------------------------------|
E|----------55555555-33333333-----------------------------------------------|
CHORUS(lead and rythm):
e|--------------------------------------------------------------------------|
B|--------------------------------------------------------------------------|
G|-55555555----------55555555-----------------------------------------------|
D|-55555555-33333333-55555555-55555555--------------------------------------|
A|-33333333-33333333-33333333-55555555--------------------------------------|
E|----------11111111----------33333333--------------------------------------|
BRIDGE:
e|--------------------------------------------------------------------------|
B|--------------------------------------------------------------------------|
G|--------------------------------------------------------------------------|
D|-3333-5555-7777-5555------------------------------------------------------|
A|-xxxx-xxxx-xxxx-xxxx------------------------------------------------------|
E|-1111-3333-5555-3333------------------------------------------------------|

| p  pull-off

LYRICS:
Kicked in the head again today. Why do I have to feel like this?
I've wasted so much time just wondering what it is and if it's right. 
Why does it have to hurt so much to fight?
With failure chasing at my feet I will not be afraid to dream. 
My hopes been lost so many times I think I'm gonna lose my mind. 
How many times before I get it right? 
[chorus]
Once again what can I do? 
I'm so sick of missing you. 
Down this road I've been before. 
All I want is to live for more. 

Lying in bed awake at night when will I ever fall asleep? 
Yet I can't seem to find the rhyme to help me finish out this line. 
How many times before I get it right? 

Once again what can I do? 
I'm so sick of missing you. 
Down this road I've been before. 
All I want is to live for more. 
[bridge]
I won't lie down for what I know is right. 
I've let it happen one too many times. 
Constant pressure, ringing in my mind, 
will be silenced tonight! 

Once again what can I do? 
I'm so sick of missing you. 
Down this road I've been before. 
All I want is to live for more. 
Once again what can I do? 
I'm so sick of missing you. 
Down this road I've been before. 
All I want is to live for more.

=============================================================================
            
Submit corrections

comments powered by Disqus
↑ Back to top | Slick Shoes Tabs for Once Again. Lyrics for acoustic guitar and electric guitar. Tablatures and chords are parodies/interpretations of the original songs. You may use it for private study, scholarship, research or language learning purposes only