» » »

Slick Shoes, Now's The Time Tabs (ver.1)

Artists:  A B C D E F G H I J K L M N O P Q R S T U V W X Y Z # 

Now's The Time Tabs (ver.1)

Slick Shoes Tabs
 Rating:
4/5 (4 votes)
Now's The Time lessons Tabs too difficult? Try these video lessons and learn fast
                "Now's The Time"
Slick Shoes
Far From Nowhere

Standard Tuning

Intro
Fig 1 - Guitar 1 - 2x
e-------------------------------------------------------------------------
B-------------------------------------------------------------------------
G--7-7--7-7----------------9-9-9-10-10--10-10-----------------------------
D--7-7--7-7-7-7-7-8-8--8-8-9-9-9-10-10--10-10-7-7-8-10-10--10-10--5-5-5---
A--5-5--5-5-7-7-7-8-8--8-8-7-7-7--8--8---8--8-7-7-8-10-10--10-10--5-5-5---
E-----------5-5-5-6-6--6-6--------------------5-5-6--8--8---8--8--3-3-3---
Fig 2 - Guitar 2 - 1x
e-------------------------------------------------------------------------
B------5-5-6-----------5-5-6-------------5-5-6-------------5-5-6----------
G--7-7-------5-5-------------5-5--10-10--------5-5---------------5-5------
D--7-7------------8-8-------------10-10-------------10-10-----------------
A--5-5------------8-8--------------8--8-------------10-10-----------------
E-----------------6-6--------------------------------8--8-----------------

Verse - 3x
  D5               A#5                      F5                  C5
e------------------------------------------------------------------------------------
B------------------------------------------------------------------------------------
G------------------10---10---10---10----10p9-----------------------------------------
D--7---7---7---7------8----8----8----8------10---10---10---10------------------------
A----5---5---5---5-----------------------------8----8----8----8-10---10---10---10----
E------------------------------------------------------------------8----8----8----8--
pm - - - - - - - - -- - -- - -- - -- -      -- - -- - -- - -- - -- - -- - -- - -- -

Pre-Chorus (Gradually lift all palm mutes)
  D5               A#5                      F5                  C5
e----------------------------------------------------------------------------
B----------------------------------------------------------------------------
G------------------10---10---10---10----10p9---------------------------------
D--7---7---7---7------8----8----8----8------10---10---10---10----------------
A----5---5---5---5-----------------------------8----8----8----8-10-10-10-10--
E----------------------------------------------------------------8--8--8--8--
pm - - - - - - - - -- - -- - -- - -- -      -- - -- - -- - -- - 

Chorus
Fig 1 & Fig 2 - 2x

Verse 2
   D5                A#5                     F5                C5
e--------------------------------------------------------------------------------
B--------------------------------------------------------------------------------
G--7-7-7-7-7-7-7-9-9-10-10-10-10-10-10-10-12-12-12-12-12-12-12-5-5-5-5-10-10-9-5-
D--x-x-x-x-x-x-x-x-x--x--x--x--x--x--x--x--x--x--x--x--x--x--x-x-x-x-x--x--x-x-x-
A--5-5-5-5-5-5-5-7-7--8--8--8--8--8--8--8-10-10-10-10-10-10-10-3-3-3-3--8--8-7-3-
E--------------------------------------------------------------------------------

   D5            A#5               F5                 C5
e----------------------------------------------------------------------
B----------------------------------------------------------------------
G--7-7--7-7---7-------------------10-10--10-10---10--------------------
D--7-7--7-7---7--8-8--8-8---------10-10--10-10---10--10-10--10-10------
A--5-5--5-5---5--8-8--8-8----------8--8---8--8----8--10-10--10-10------
E----------------6-6--6-6-----------------------------8--8---8--8------

   D5            A#5               F5                 C5
e----------------------------------------------------------------------
B----------------------------------------------------------------------
G--7-7--7-7---7-------------------10-10--10-10---10--------------------
D--7-7--7-7---7--8-8--8-8---------10-10--10-10---10--10-10--10-10------
A--5-5--5-5---5--8-8--8-8----------8--8---8--8----8--10-10--10-10------
E----------------6-6--6-6-----------------------------8--8---8--8------
pm                                                      -  -   -  -


Pre-Chorus 2
  Guitar 1   Guitar 2
e----------|----------
B----------|----------
G--10-9~---|----------
D----------|---3-2~---
A----------|----------
E----------|----------

Chorus
Fig 1 & Fig 2 - 2x

Bridge (VERY Sketchy)
e------|----------------------------------------
B------|----------------------------------------
G--10--|----9--10-10---9--5--7--5---5--7--7--5--
D--10--|---10--10-10--10--3--3--3---3--3--3--3--
A------|----------------------------------------
E------|----------------------------------------

Fill - Guitar 2 - 2nd time
e------------
B----6---5~--
G--5---5-----
D------------
A------------
E------------

Guitar 1 - 3x                                                        2x
e----------------------------------------------|---------------------
B----------------------------------------------|---------------------
G-------10----9-10-9---------10----12-10-9-10--|--9-9-9-10-10-10-10--
D----10----10--------10---10----10-------------|---------------------
A--8--------------------8----------------------|---------------------
E----------------------------------------------|---------------------
pm - -- -- -- - -- - -- - -- -- -- -- -- - --     - - - -- -- -- --

Guitar 2 - 3x                                                        2x
e----------------------------------------------|---------------------
B----------------------------------------------|---------------------
G--10--10--10--10--10--10--10--10--12-10--10---|--10-10-10-10-10-10--
D--10--10--10--10--10--10--10--10--10-10--10---|--10-10-10-10-10-10--
A----------------------------------------------|---------------------
E----------------------------------------------|---------------------
pm --  --  --  --  --  --  --  --  -- --  --      --  --  --  --  --

Outro
Fig 2 - 1x

Chorus
Fig 1 - 3x
Fig 2 - 3x

END ON D5
            
Submit corrections

comments powered by Disqus
↑ Back to top | Slick Shoes Tabs for Now's The Time. Lyrics for acoustic guitar and electric guitar. Tablatures and chords are parodies/interpretations of the original songs. You may use it for private study, scholarship, research or language learning purposes only