» » »

Not That Far Tabs (ver.1)

Artists:  A B C D E F G H I J K L M N O P Q R S T U V W X Y Z # 

Not That Far Tabs (ver.1)

Slick Shoes
Rating:
0/5 (0 votes)

Hard to play? Try these video lessons and learn fast.
                Slick Shoes - Not That Far
e|---------------------------------------------------------------------------| 
B|---------------------------------------------------------------------------| 
G|--1414141414-13--11-11-11-11-11-11-11-11-(11)---8-------8--------8------8--| 
D|--1414141414-13--11-11-11-11-11-11-11-11-(11)-----9-------9--------9------9| 
A|--1212121212-11--9--9--9--9--9--9--9--9--(9-)-6------6---------7------7----| 
E|---------------------------------------------------------------------------| 

Verse: x2 (listen to song for rythmn. The "(9)" at the end means to hit the note, but 
softer than the other one) 
PM........................................................................... 
e|---------------------------------------------------------------------------| 
B|---------------------------------------------------------------------------| 
G|--9---8--------------(every now and then throw this in with the chords)-(9)| 
D|--9---9---9---6-7---9----------------------------------------------------9-| 
A|--7---6---9---6-7---9------------------------------------------------------| 
E|----------7---4-5---7------------------------------------------------------| 

Chorus: x4 (again, listen to song for rythmn) 
e|---------------------------------------------------------------------------| 
B|---------------------------------------------------------------------------| 
G|--9------9-----------------------------------------------------------------| 
D|--9--7---9--9--------------------------------------------------------------| 
A|--7--7---7--9--------------------------------------------------------------| 
E|-----5------7--------------------------------------------------------------| 

Verse 2: x2 (haha, again, listen to the song for rythmn) 
e|---------------------------------------------------------------------------| 
B|---------------------------------------------------------------------------| 
G|--9---8--------------------------------------------------------------------| 
D|--9---9---7---9---9-7-6----------------------------------------------------| 
A|--7---6---7---9------------------------------------------------------------| 
E|----------5---7------------------------------------------------------------| 

Chorus 

Bridge Thingy - 1st guitar x2 (listen for rythmn) 
e|---------------------------------------------------------------------------| 
B|---------------------------------------------------------------------------| 
G|--999---9-8888-------------------------------------------------------------| 
D|--999---9-9999---777---7-9999----------------------------------------------| 
A|--777---7-6666---777---7-9999----------------------------------------------| 
E|-----------------555---5-7777----------------------------------------------| 

Bridge Thingy - 2nd guitar (plays while 1st guitar is playing, listen for rythmn) 
e|---------------------------------------------------------------------------| 
B|---------------------------------------------------------------------------| 
G|--9---8---6---4-----9---11---13---16-------9---8---------------------------| 
D|--9---9---6---4-----9---11---13---16-------9---9---------------------------| 
A|--7---6---4---2-----7---9----11---14-------7---6---------------------------| 
E|---------------------------------------------------------------------------| 

Solo: x2 
e|---------------------------------------------------------------------------| 
B|---------------------------------------------------------------------------| 
G|--9-8---9-8---9-8---9-8--------------------------9-8---9-8---9-8---9-8-----| 
D|-----9-----9-----9-----9---9/11-9v----11-9----------9-----9-----9-----9----|(continued) 
A|------------------------------------11-----9v------------------------------| 
E|---------------------------------------------------------------------------| 

e|---------------------------------------------------------------------------| 
B|---------------------------------------------------------------------------| 
G|--------------------------------------------------9------------------------| 
D|--9/11-9v----11-9v----6h7-6--4h6-4---2v(play with-9-chord to end)----------| 
A|-----------11-------------------------------------7------------------------| 
E|---------------------------------------------------------------------------| 

Chords played with solo: 
e|---------------------------------------------------------------------------| 
B|---------------------------------------------------------------------------| 
G|--9---8--------------------------------------------------------------------| 
D|--9---9---7---9------------------------------------------------------------| 
A|--7---9---7---9------------------------------------------------------------| 
E|------7---5---7------------------------------------------------------------|
            
Hard to play? Try these video lessons and learn fast. | Correct




comments powered by Disqus
↑ Back to top | Tablatures and chords are parodies/interpretations of the original songs. You may use it for private study, scholarship, research or language learning purposes only