» » »

No More Words Bass tabs (ver.1)

Artists:  A B C D E F G H I J K L M N O P Q R S T U V W X Y Z # 

No More Words Bass tabs (ver.1)

Slick Shoes
Rating:
0/5 (0 votes)

Tabs too difficult? Try these video lessons and learn fast.
                
Intro
G:--------------|
D:--------------|
A:-----------7--|
E:-0--0-0--0----|

Verse 1&2
G:---------------------------------------------------------------|
D:---------------------------------------------------------------|
A:-77777777777777-00000000000000-44444444444444-0000000-2222222--|
E:---------------------------------------------------------------|

Pre-Chorus
G:------------------------------------------|
D:------------------------------------2222--|
A:-0000-2222-0000-2222-0000-2222-0000-------|
E:------------------------------------------|

Chorus
G:---------------------------|
D:---------------------------|
A:-77----77-44--77-------22--|
E:----55-----------55-44-----|

Bridge
G:---------------------------------------------------------------|
D:---------------------------------------------------------------|
A:---------------------------------------------------------------|
E:-00000000000000-44444444444444-22222222222222-5555555-7777777--|

and thats the song if you like it. rate it. if not......then dont 
just listen to the cd to get it right
its very easy
            
Tabs too difficult? Try these video lessons and learn fast.




comments powered by Disqus
↑ Back to top | Tablatures and chords are parodies/interpretations of the original songs. You may use it for private study, scholarship, research or language learning purposes only