» » »

Slick Shoes, Joe's Sick Bass tabs (ver.1)

Artists:  A B C D E F G H I J K L M N O P Q R S T U V W X Y Z # 

Joe's Sick Bass tabs (ver.1)

Slick Shoes Tabs
 Rating:
4/5 (4 votes)
Joe's Sick lessons Tabs too difficult? Try these video lessons and learn fast
                Artist - Slick Shoes
Song - Joe's Sick
Album - Rusty


Intro

G -------------------------------------------
D -------------------------------------------   x2
A -----------66666-----------444-333-1------- 
E --44444-----------11111--------------------

Verse

G ---------------------------------------------------------------------------------
D ---------------------------------------------------------------------------------
A ----------66666666----------4444444-3----------66666666----------3333333-44444444
E -44444444----------11111111-----------44444444----------11111111-----------------


G --------------
D --------------
A --66666666----
E --------------

Chorus

G -------------------------------------------------------
D -------------------------------------------------------  x2
A ---------6666--4444--4-4-----------6666--4444--6666---- 
E --4444----------------------4444-----------------------

Verse

Chorus


Outro

G -------------------|---------------------------------------
D -------------------|---------------------------------------  x4
A ---------------6---|-------------3333--4444------(4-4-4)--- 
E -4(let ring)-------|-4444--3333-------------------------(4)(let ring)

 (in parenthesis, play only on the 4th time)
            
Submit corrections

comments powered by Disqus
↑ Back to top | Slick Shoes Bass for Joe's Sick. Lyrics for acoustic guitar and electric guitar. Tablatures and chords are parodies/interpretations of the original songs. You may use it for private study, scholarship, research or language learning purposes only