>
 >
Hello Stupid

Hello Stupid Guitar Tabs

Slick Shoes - Hello Stupid chords, tabs, tablatures, lyrics

Guitar lessons | Add/correct | Request | Top 50 tabs Artists:  A B C D E F G H I J K L M N O P Q R S T U V W X Y Z 0-9

Hello Stupid Guitar Tabs – Slick Shoes

CD, Sheet music, Poster

Do you like Hello Stupid? Share with your friends now
Tabs
Band: Slick Shoes

Tuning: EADGBe

 Intro � Guitar 1
e|---------------------------------------------------------------------------|
B|---------------------------------------------------------------------------|
G|-----5-4-5------5-4-5------5-4-5------5-4-5-------5-4-5-------5-4-5--------|
D|------------3-3--------2-2--------3-3--------------------3-3---------------|
A|-3-3-----------------------------------------3-3---------------------------|
E|---------------------------------------------------------------------------|

e|---------------------------------------------------------------------------|
B|---------------------------------------------------------------------------|
G|-----5-4-5------5-4-5------------------------------------------------------|
D|-2-2--------3-3------------------------------------------------------------|
A|---------------------------------------------------------------------------|
E|---------------------------------------------------------------------------|

 Guitar 2
e|-----|---------------------------------------------------------------------|
B|-----|---------------------------------------------------------------------|
G|-5-5-|-5-5-----------------------------5-5---------------------------------|
D|-5-5-|-5-5--5--3-3--3--3-3--3--3-3--3--5-5--5--3-3--3--3-3--3--3-3--3------|
A|-3-3-|-3-3--5--3-3--3--3-3--3--3-3--3--3-3--5--3-3--3--3-3--3--3-3--3------|
E|-----|------3--1-1--1--0-0--0--1-1--1-------3--1-1--1--0-0--0--1-1--1------|

 Verse � Guitar 1
e|---------------------------------------------------------------------------|
B|---------------------------------------------------------------------------|
G|---------------------------------------------------------------------------|
D|-----------------3-3-3-3-3-3-3-3-2-2-2-2-2-2-0-2-0-------------------------|
A|-3-3-3-3-3-3-3-3-----------------------------------0-----------------------|
E|---------------------------------------------------------------------------|
P.M. . . . . . . . . . . . . . . . . . . . . . . . . .

 Guitar 2            Then
e|-----------------|---------------------------------------------------------|
B|-----------------|---------------------------------------------------------|
G|-5---------------|-5-------------2--------------5--------------------------|
D|-5-------5-----3-|-5---5--3---3--2---3--5-------5--------------------------|
A|-3-3-3-3-5-----3-|-3---5--3---3--0---3--5---2^�-3--------------------------|
E|---------3-----1-|-----3--1---1------1--3----------------------------------|
P.M  . . .
 
Chorus � Guitar 1
e|---------------------------------------------------------------------------|
B|---------------------------------------------------------------------------|
G|-5-5--5-5--5--9-9--7-9--7-7--7-7--7--9-9--7-9--12-12-12-12�12-12-12-12-12--|
D|-x-x--x-x--x--x-x--x-x--x-x--x-x--x--x-x--x-x---x--x--x�-x--x--x--x�-x--x--|
A|-3-3--3-3--3--7-7--5-7--5-5--5-5--5--7-7--5-7--10-10-10-10-10-1--10-10-10--|
E|---------------------------------------------------------------------------|

e|---------------------------------------------------------------------------|
B|---------------------------------------------------------------------------|
G|-9-9-9--7-7--9-9-9--7-7-------5-5--5-5--5--9-9--7-9--7-7--7-7--7--9-9--7-9-|
D|-x-x-x--x-x--x-x-x--x-x-------x-x--x-x--x--x-x--x-x--x-x--x-x--x--x-x--x-x-|
A|-7-7-7--5-5--7-7-7--5-5-------3-3�-3-3--3--7-7--5-7--5-5--5-5--5--7-7--5-7-|
E|---------------------------------------------------------------------------|


e|---------------------------------------------------------------------------|
B|---------------------------------------------------------------------------|
G|-12-12-12-12-12-12-12-12-12--9-9-9--7-7--9-9-9--7-7------------------------|
D|--x--x--x--x--x--x--x--x--x--x-x-x--x-x--x-x-x--x-x------------------------|
A|-10-10-10-10-10-10-10-10-10--7-7-7--5-5--7-7-7--5-5------------------------|
E|---------------------------------------------------------------------------|

 Guitar 2
e|---------------------------------------------------------------------------|
B|---------------------------------------------------------------------------|
G|-5-5-5-5-5-5-5-5-5-5-5-----------------------------------------------------|
D|-5-5-5-5-5-5-5-5-5-5-5-5-5-5-5-5-5-5-5-5-5-5-3-3-3-3-3-3-3-3-3-3-3-3-3-3-3-|
A|-3-3-3-3-3-3-3-3-3-3-3-5-5-5-5-5-5-5-5-5-5-5-3-3-3-3-3-3-3-3-3-3-3-3-3-3-3-|
E|-----------------------3-3-3-3-3-3-3-3-3-3-3-1-1-1-1-1-1-1-1-1-1-1-1-0-0-0-|

e|---------------------------------------------------------------------------|
B|---------------------------------------------------------------------------|
G|---------------------------------------------------------------------------|
D|-3-3-3-3-3-3-3-3-3---------------------------------------------------------|
A|-3-3-3-3-3-3-3-3-3---------------------------------------------------------|
E|-0-0-0-0-1-1-1-1-1---------------------------------------------------------|

Interlude � Guitar 1
e|---------------------------------------------------------------------------|
B|--------------------------------------------------1------------------------|
G|----------0--------------------------------0------0----0-------------------|
D|---0h2------2--------2�-2p0-2p0----0h2-------2----0h2----0h2^-0------------|
A|-3------3-----3-------------------------------------------------3----------|
E|-----------------0h3-------------1------1------1---------------------------|

Then � Guitar 2
e|---------------------------------------------------------------------------|
B|---------------------------------------------------------------------------|
G|-5-------------------------------------------------------------------------|
D|-5-------------------------------------------------------------------------|
A|-3-3-3-3-3-3-3-3-3-3-3-3-3-3-3-3-3-3-3-3-3-3-3-3-3-3-3-3-3-3-3-3-3-3-3-3-3-|
E|---------------------------------------------------------------------------|
P.M  . . . . . . . . . . . . . . . . . . . . . . . . . . . . . . . . . . . . 

Guitar 1
e|---------------------------------------------------------------------------|
B|---------------------------------------------------------------------------|
G|----------------------------------2-2-2-2-2-2-2-2-2-2-2-3-3-3-3-3-3-2-2-2-2|
D|---------------------------------------------------------------------------|
A|---------------------------------------------------------------------------|
E|---------------------------------------------------------------------------|
P.M                                 . . . . . . . . . . . . . . . . . . . . .

Outro � Guitar 2
e|---------------------------------------------------------------------------|
B|---------------------------------------------------------------------------|
G|-------------------------2-2-2-2-2-2-2-2-2-2-2-2----------5-5-5-5----------|
D|-5-5-5-5-5-5-5-5-5-5-5-5-2-2-2-2-2-2-2-2-2-2-2-2--3-3-3-3-5-5-5-5----------|
A|-5-5-5-5-5-5-5-5-5-5-5-5-0-0-0-0-0-0-0-0-0-0-0-0--3-3-3-3-3-3-3-3----------|
E|-3-3-3-3-3-3-3-3-3-3-3-3--------------------------1-1-1-1------------------|

e|---------------------------------------------------------------------------|
B|---------------------------------------------------------------------------|
G|-------------------------2-2-2-2-2-2-2-2-2-2-2-2----------5-5-5-5----------|
D|-5-5-5-5-5-5-5-5-5-5-5-5-2-2-2-2-2-2-2-2-2-2-2-2--3-3-3-3-5-5-5-5----------|
A|-5-5-5-5-5-5-5-5-5-5-5-5-0-0-0-0-0-0-0-0-0-0-0-0--3-3-3-3-3-3-3-3----------|
E|-3-3-3-3-3-3-3-3-3-3-3-3--------------------------1-1-1-1------------------|

e|---------------------------------------------------------------------------|
B|---------------------------------------------------------------------------|
G|---------------------------------------------------------------------------|
D|-5-5-5-5-5-5-5-5-5-5-5-5-3-3-3-3-3-3-3-3-3-3-3-3--3-3-3-3-3-3-3-3-3-3-3-3--|
A|-5-5-5-5-5-5-5-5-5-5-5-5-3-3-3-3-3-3-3-3-3-3-3-3--3-3-3-3-3-3-3-3-3-3-3-3--|
E|-3-3-3-3-3-3-3-3-3-3-3-3-1-1-1-1-1-1-1-1-1-1-1-1--0-0-0-0-0-0-0-0-0-0-0-0--|

e|---------------------------------------------------------------------------|
B|---------------------------------------------------------------------------|
G|---------------------------------------------------------------------------|
D|-3-3-3-3-3-3--5-5-5-5------------------------------------------------------|
A|-3-3-3-3-3-3--5-5-5-5------------------------------------------------------|
E|-1-1-1-1-1-1--3-3-3-3------------------------------------------------------|

Guitar 1
e|---------------------------------------------------------------------------|
B|---------------------------------------------------------------------------|
G|-------------------------2-2-2-2-2-2-2-2-2-2-2-2----------5-5-5-5----------|
D|-5-5-5-5-5-5-5-5-5-5-5-5-2-2-2-2-2-2-2-2-2-2-2-2--3-3-3-3-5-5-5-5----------|
A|-5-5-5-5-5-5-5-5-5-5-5-5-0-0-0-0-0-0-0-0-0-0-0-0--3-3-3-3-3-3-3-3----------|
E|-3-3-3-3-3-3-3-3-3-3-3-3--------------------------1-1-1-1------------------|

e|---------------------------------------------------------------------------|
B|---------------------------------------------------------------------------|
G|-4-4--4-4-4--4-4-4--4-4-4--4--5-5-5--4-4--5-5-5--4-4-----------------------|
D|-x-x--x-x-x--x-x-x--x-x-x--x--x-x-x--x-x--x-x-x--x-x-----------------------|
A|-2-2--2-2-2--2-2-2--2-2-2--2--3-3-3--2-2--3-3-3--2-2-----------------------|
E|---------------------------------------------------------------------------|

e|---------------------------------------------------------------------------|
B|---------------------------------------------------------------------------|
G|--------------------------------------------------7-7--7-7-7--7-7-7--7-7-7-|
D|-5-5-5-5-5-5-5-5-5-5-5-5-3-3-3-3-3-3-3-3-3-3-3-3--x-x--x-x-x--x-x-x--x-x-x-|
A|-5-5-5-5-5-5-5-5-5-5-5-5-3-3-3-3-3-3-3-3-3-3-3-3--5-5--5-5-5--5-5-5--5-5-5-|
E|-3-3-3-3-3-3-3-3-3-3-3-3-1-1-1-1-1-1-1-1-1-1-1-1---------------------------|

e|---------------------------------------------------------------------------|
B|---------------------------------------------------------------------------|
G|-7--9-9--9-9-9--9--10-10--10-10-10--10-------------------------------------|
D|-x--x-x--x-x-x--x---x--x---x--x--x---x-------------------------------------|
A|-5--7-7--7-7-7--7---8--8---8--8--8---8-------------------------------------|
E|---------------------------------------------------------------------------|

Then - Guitar 1
e|---------------------------------------------------------------------------|
B|---------------------------------------------------------------------------|
G|-----5-4-5------5-4-5------5-4-5------5-4-5-------5-4-5-------5-4-5--------|
D|------------3-3--------2-2--------3-3--------------------3-3---------------|
A|-3-3-----------------------------------------3-3---------------------------|
E|---------------------------------------------------------------------------|

e|---------------------------------------------------------------------------|
B|---------------------------------------------------------------------------|
G|-----5-4-5------5-4-5------------------------------------------------------|
D|-2-2--------3-3------------------------------------------------------------|
A|---------------------------------------------------------------------------|
E|---------------------------------------------------------------------------|

 Guitar 2
e|-----|----------------------------------------------------------------|----|
B|-----|----------------------------------------------------------------|----|
G|-5-5-|-5-5-----------------------------5-5----------------------------|-5-5|
D|-5-5-|-5-5--5--3-3--3--3-3--3--3-3--3--5-5--5--3-3--3--3-3--3--3-3--3-|-5-5|
A|-3-3-|-3-3--5--3-3--3--3-3--3--3-3--3--3-3--5--3-3--3--3-3--3--3-3--3-|-3-3|
E|-----|------3--1-1--1--0-0--0--1-1--1-------3--1-1--1--0-0--0--1-1--1-|----|





Comments


Popular Slick Shoes tabs & chords
Angel Bass Tabs
East On Tracks Bass Tabs
Fall Bass Tabs
Fall 1 Bass Tabs
Learn To Unlearn Bass Tabs
Losing Sight Bass Tabs
The Last Round Bass Tabs
Always There Tabs
Bounce Intro Tabs
My Ignorance Tabs


Song lyrics



↑ Back to top | Tablatures and chords are parodies/interpretations of the original songs. You may use it for private study, scholarship, research or language learning purposes only
© 2014 AZChords.com Contact us | Privacy policy | DMCA | Add/correct tabs | Request tabs | Top 50 tabs