» » »

Slick Shoes, Have I Said To Much Tabs (ver.1)

Artists:  A B C D E F G H I J K L M N O P Q R S T U V W X Y Z # 

Have I Said To Much Tabs (ver.1)

Slick Shoes Tabs
 Rating:
4/5 (4 votes)
Have I Said To Much lessons Tabs too difficult? Try these video lessons and learn fast
1
                -----------------------------------------5-5-5-5-5-5-5------------------------------
-----5-5-5-----5-5-5----5-5-5-----5-5-5--7-7-7-7-7-7-7------------------------------
-----5-5-5-----5-5-5----5-5-5-----5-5-5--7-7-7-7-7-7-7------------------------------
---3-3-3-3---3-3-3-3--3-3-3-3---3-3-3-3---------------------------------------------
repeat this twice
---------------------------------8-8-8-8-8-8-10-10-10-8-8-8-7-----------------------
6h7-6h7-6h7-6h7-6h7-7-7-7-7-7-7-----------------------------------------------------

---------5-5-5---------5-5-5---------5-5-5---------5-5-5----------------------------
--5-5-5--5-5-5--2-2-2--5-5-5--5-5-5--5-5-5--2-2-2--5-5-5----------------------------
--5-5-5--3-3-3--2-2-2--3-3-3--5-5-5--3-3-3--2-2-2--3-3-3----------------------------
--3-3-3---------0-0-0---------3-3-3---------0-0-0-----------------------------------
repeat 3 times
-----------------5-5--5-5-5--5-5-5--5-7-7-7-5---------------------------------------
--5-5------4-4---5-5--5-5-5--5-5-5--5-7-7-7-5---------------------------------------
--5-5------4-4---3-3--3-3-3--3-3-3--3-5-5-5-3---------------------------------------
--3-3------2-2----------------------------------------------------------------------

-------------------------------------8-8-8-8-8-8-10-10-10-8-8-8-7-------------------
----6h7-6h7-6h7-6h7-6h7-7-7-7-7-7-7-------------------------------------------------

-----------------------------------------5-5-5-5-5-5-5------------------------------
-----5-5-5-----5-5-5----5-5-5-----5-5-5--7-7-7-7-7-7-7------------------------------
-----5-5-5-----5-5-5----5-5-5-----5-5-5--7-7-7-7-7-7-7------------------------------
---3-3-3-3---3-3-3-3--3-3-3-3---3-3-3-3---------------------------------------------

----------------------------------------------7--8--10--7-8-10-10-8-7-8-------------
----------------------------------------------7--8--10--7-8-10-10-8-7-8-------------
-----------------------------------4-5-7-5------------------------------------------
---5h7p5--4h5p4--5h7p5--4h5----7----------------------------------------------------

--------------------------------------4h5-4h5-4h5-4h5-4h5-4h5-4h5-4h5-7-5-4-7-5-4---
5h7-5h7-5h7-5h7-5h7-5h7-5h7-5h7-----------------------------------------------------

-----------7-----7-9b-9b-9b-9b-8-7-5------------------------------------------------
6b-----9b-----9b----------------------7---------------------------------------------
----7-------------------------------------------------------------------------------

---------5-5-5---------5-5-5---------5-5-5---------5-5-5----------------------------
--5-5-5--5-5-5--2-2-2--5-5-5--5-5-5--5-5-5--2-2-2--5-5-5----------------------------
--5-5-5--3-3-3--2-2-2--3-3-3--5-5-5--3-3-3--2-2-2--3-3-3----------------------------
--3-3-3---------0-0-0---------3-3-3---------0-0-0-----------------------------------

-----3-----2------------------------------------------------------------------------
-----3-----2------------------------------------------------------------------------
--------------5-5--5-5-5--5-5-5--5--7-5-4-5-4---------------------------------------
-5-5---4-4----5-5--5-5-5--5-5-5--5------------5-------------------------------------
-5-5---4-4----3-3--3-3-3--3-3-3--3--------------------------------------------------
-3-3---2-2--------------------------------------------------------------------------

-----3-----2------------------------------------------------------------------------
-----3-----2------------------------------------------------------------------------
--------------5-5--5-5-5--5-5-5--5--7-5-4-5-4---------------4--5--------------------
-5-5---4-4----5-5--5-5-5--5-5-5--5---------------5--5-0-4h5----5--------------------
-5-5---4-4----3-3--3-3-3--3-3-3--3--------------------------------------------------
-3-3---2-2--------------------------------------------------------------------------
            
Submit corrections

comments powered by Disqus
↑ Back to top | Slick Shoes Tabs for Have I Said To Much. Lyrics for acoustic guitar and electric guitar. 1 Tablatures and chords are parodies/interpretations of the original songs. You may use it for private study, scholarship, research or language learning purposes only