>
 >
East On Tracks

East On Tracks Bass Tabs

Slick Shoes - East On Tracks chords, tabs, tablatures, lyrics

Guitar lessons | Add/correct | Request | Top 50 tabs Artists:  A B C D E F G H I J K L M N O P Q R S T U V W X Y Z 0-9

East On Tracks Bass Tabs – Slick Shoes

CD, Sheet music, Poster

Do you like East On Tracks? Share with your friends now
Bass Tabs
Slick Shoes
"East On Tracks"

Tab for Bass - by Stu.



* Intro

Guitarra
 G |-----------|------------|
 D |-----------|------------| 
 A |-4---------|-4---------4|
 E |---5--2--4-|---5--2--4--|


 G |----------------------------------------------|
 D |----------------------------------------------|    
 A |-4444444444-222222222-----------------------2-|
 E |----------------------222222222222222-00000---|


 G |-------------------------------------------|
 D |-------------------------------------------|    
 A |-4444444444-222222222-------------------33-|
 E |----------------------222222222-4444444----|


início Voz
 G |-------------------------------------------|
 D |-------------------------------------------|    
 A |-4444444444-222222222----------------------|
 E |----------------------222222222-444444444--|

 G |-------------------------------------------|
 D |-------------------------------------------|    
 A |-4444444444-222222222----------------------|
 E |----------------------222222222-444444444--|

 G |-----------------------------|----------------------------|
 D |-----------------------------|----------------------------|    
 A |-444444------------------333-|-444444-----------------333-|
 E |--------222222-555555-4------|--------222222-555555-4-----|

Volta a voz
 G |------------------------------------------|
 D |------------------------------------------|    
 A |-4444444444-------------------------------|
 E |------------0000000000--444444444-555555--|
 
 G |-----------------------------|----------------------------|
 D |-----------------------------|----------------------------|    
 A |-444444------------------333-|-444444-----------------333-|
 E |--------222222-555555-4------|--------222222-555555-4-----|


Tempo Diferente
 G |-------------------------------------------------------|
 D |-------------------------------------------------------| 
 A |-44444444444-------------------------------------------| -->2x
 E |-------------55555555555--22222222222222--444444444444-| 


Final

 G |---------------------------------------------|
 D |---------------------------------------------| 
 A |-444444444-6666666666-7777777777-9999999999--| --> 2x
 E |---------------------------------------------|





Comments


Popular Slick Shoes tabs & chords
I Knew Bass Tabs
Joe's Sick Bass Tabs
Silence Bass Tabs
Angel 2 Tabs
Bounce Intro Tabs
Friday Night Tabs
Friday Nite Tabs
Joe's Sick Tabs
My Ignorance Tabs
Alone Ukulele


Song lyrics



↑ Back to top | Tablatures and chords are parodies/interpretations of the original songs. You may use it for private study, scholarship, research or language learning purposes only
© 2014 AZChords.com Contact us | Privacy policy | DMCA | Add/correct tabs | Request tabs | Top 50 tabs