>
 >
Darko

Darko Guitar Tabs

Slick Shoes - Darko chords, tabs, tablatures, lyrics

Guitar lessons | Add/correct | Request | Top 50 tabs Artists:  A B C D E F G H I J K L M N O P Q R S T U V W X Y Z 0-9

Darko Guitar Tabs – Slick Shoes

CD, Sheet music, Poster

Do you like Darko? Share with your friends now
Tabs

  ( ! ) i don't have included the piano notes in the intro / eu não incluí as notas do 
na intro

  Intro (guitar2 plays "B" and "G" strings / guitarra2 toca as cordas "B" e "G")

E----------------------------------------------------------------------------------------------------------------------|
B-------7-------------7------------7---------------------------------------7--------------------------------------7----|
G-------9-------------9------------9---------------------------------------9--------------------------------------9----|
D------------------------------------x4-----x4-----x4---x4------x4-----x4----------------------------------------------|
A-(bass/baixo - 5450---------5450)---x2x2---x2x2---x2---x2x2----x2x2---x2----x5-----x5-----x5---x4------x5-----x4------|
E----------------------------------------------------------------------------x3x3---x3x3---x3---x3x3----x3x3---x3------|

E---------------------------------------------------|
B----------------------------7----------------------|
G----------------------------9----------------------|
D----4---4---4--5--4--2--4--------------------------|
A----22--22--2--2--2--2--2-----5---5---5--4--5---0--|
E------------------------------33--33--3--33-33-----|

  ( ! ) now the 2 guitars plays the same notes together / agora as 2 guitarras tocam 
as mesmas notas

E---------------------------------------------------------------------------------------------------|
B---------------------------------------------------------------------------------------------------|
G--66666666666--44444--222--000--66666666666--66769676--66666666666--44444--222--000--66666666666---|
D--44444444444--44444--000--000--44444444444--77777777--44444444444--44444--000--000--44444444444---|
A---------------------------------------------------------------------------------------------------|
E---------------------------------------------------------------------------------------------------|

E-------------------------------------------------|
B-------------------------------------------------|
G--6/*11-*11--*11*11*11*11--*12*12*12*12*12*12----|
D--7/*12-*12--*12*12*12*12--*12*12*12*12*12*12----|
A-------------------------------------------------|
E-------------------------------------------------|

   R i f f  1

E----------------------------------------------------------------------------------|
B----------------------------------------------------------------------------------|
G----------------------------------------------------------------------------------|
D----445544----445544---------------------004400----004400-------------------------|
A--22--------22---------554455---554455-----------------------5/0--5-----554450----|
E--------------------33--------33-------00------00---------22-----2--233-----------|

E----------------------------------------------------------------------------------|
B----------------------------------------------------------------------------------|
G----------------------------------------------------------------------------------|
D-----445544----445544-----------------------004400---004400-----------------------|
A--22--------22-----------554455---554455-----------------------5/0--5-----554450--|
E----------------------33--------33--------00------00--------22-----2--233---------|

   C h o r u s / R e f r ã o

    ( ! )  Guitar 1 plays this...  / Guitarra 1 toca isso...
E-----------------------------------------------------------------|
B-----------------------------------------------------------------|
G--4444-44-4-66-6-777777777777-4444-44-4-66-6-777777777777--------|
D--4444-44-4-66-6-777777777777-4444-44-4-66-6-777777777777--------|  ( x2 )
A--2222-22-2-44-4-555555555555-2222-22-2-44-4-555555555555--------|
E-----------------------------------------------------------------|

    ( ! ) ...While Guitar 2 plays this / Enquanto a Guitarra 2 toca isso
E-------------------------------------------------------------------------|
B-----------------777775555555--------------------------------------------|
G--4444-44-4-66-6-777777777777-4444-44-4-66-6-*11*11*12*11*14*12*11*12----|  ( x2 )
D---------------------------------------------*12*12*12*12*12*12*12*12----|
A--2222-22-2-44-4--------------2222-22-2-44-4-----------------------------|
E-------------------------------------------------------------------------|

   Bridge / Ponte

E--------------|
B--------------|
G--4---4-------|
D--------------|
A--2---2-------|
E-------3--3---|

   R i f f  2

E---------------------------------------------------------------------------------------------------------------------------------------------|
B---------------------------------------------------------------------------------------------------------------------------------------------|
G---------------------------------------------------------------------------------------------------------------------------------------------|
D-----0004400----0004400------5/0-----5-----5554450----4445544----4445544---5554455----555445----0004400---0004400-----5/0-----5----5554450---|
A---------------------------------------------------22----------22----------------------------------------------------------------------------|
E--00----------00----------222----222---2333-----------------------------33----------33--------00--------00--------222-----222--2333----------|

  R e p e a t  C h o r u s / R e p e t e  R e f r ã o

    ( ! )  Guitar 1 plays this...  / Guitarra 1 toca isso...
E-----------------------------------------------------------------------------------------------|
B-----------------------------------------------------------------------------------------------|
G--4444-44-4-66-6-777777777777-4444-44-4-66-6-777777777777--------------------------------------|

 ( x2 )
A--2222-22-2-44-4-555555555555-2222-22-2-44-4-555555555555--------------------------------------|
E-----------------------------------------------------------------------------------------------|

    ( ! ) ...While Guitar 2 plays this / Enquanto a Guitarra 2 toca isso
E---------------------------------------------------------------------------|
B-----------------777775555555----------------------------------------------|
G--4444-44-4-66-6-777777777777-4444-44-4-66-6-*11*11*12*11*14*12*11*12------|  ( x2 )
D---------------------------------------------*12*12*12*12*12*12*12*12------|
A--2222-22-2-44-4--------------2222-22-2-44-4-------------------------------|
E---------------------------------------------------------------------------|

    Bridge / Ponte

E--------------------------------|
B--------------------------------|
G---------------4/666666666666---|
D--55555555555-------------------|
A--55555555555--2/444444444444---|
E--33333333333-------------------|

E----------------------------------------------------------|
B----------------------------------------78pull off7-------|
G----------------------------------679---------------97----|
D--44444444-------020----44444444--------------------------|
A--22222222--024-----40--22222222--------------------------|
E----------------------------------------------------------|

E---------------------------------|
B---------------------------------|
G---------------4/666666666666----|
D--55555555555--------------------|
A--55555555555--2/444444444444----|
E--33333333333--------------------|

E--------------------------------------------------------|
B----------------------------------------78pull off7-----|
G----------------------------------679---------------97--|
D--44444444-------020----44444444------------------------|
A--22222222--024-----40--22222222------------------------|
E--------------------------------------------------------|

E--------------------------------------------------------------------|
B--------------------------------------------------------------------|
G--------------------------------------------------------------------|
D--------------------------------------------------------------------|
A--5555555555--7--4444444444444--5555555555--7--4444444444444--------|
E--3333333333--5--2222222222222--3333333333--5--2222222222222--------|

    Ending / Finalização

E--------------------------------------------------------------------------------------------------------------------------------|
B-----------------7----------------------------------75---7hammer on8pull 
on8pull off7----------|
G--x4x4x6x7---x7----x6----x6----7----467----76--67-----------------------------9767--467----76--67-----------------------9767----|
D-----------------------x7----x7----x7--6---------------7--------------------------------------------------------------7---------|
A--------------------------------------------------------------------------------------------------------------------------------|
E--------------------------------------------------------------------------------------------------------------------------------|

E----------------------------------|
B----------------------------------|
G----------------------------------|
D--4477--------4477---------4------|
A--2255-557744-2255-557744--2------|
E-------335522------335522---------|


----------------------------------------------------------------------------------------------------------------------------------
   ENG - " Might have some errors, but it's because i wrote this tab in a hurry... sorry "
   PORT - " Podem haver alguns erros, mas é porque eu escrevi essa tablatura com 
desculpe "


   ( ! ) Support only in english, portuguese or spanish  ( ! )
----------------------------------------------------------------------------------------------------------------------------------





Comments


Popular Slick Shoes tabs & chords
Fall Bass Tabs
Fall 1 Bass Tabs
Learn To Unlearn 1 Bass Tabs
Losing Sight 1 Bass Tabs
Parting Ways 1 Bass Tabs
Silence Bass Tabs
Nows The Time (Intro) Chords
Angel Tabs
Angel 1 Tabs
Once Again Tabs


Song lyrics



↑ Back to top | Tablatures and chords are parodies/interpretations of the original songs. You may use it for private study, scholarship, research or language learning purposes only
© 2014 AZChords.com Contact us | Privacy policy | DMCA | Add/correct tabs | Request tabs | Top 50 tabs