>
 >
Another Day

Another Day Bass Tabs

Slick Shoes - Another Day chords, tabs, tablatures, lyrics

Guitar lessons | Add/correct | Request | Top 50 tabs Artists:  A B C D E F G H I J K L M N O P Q R S T U V W X Y Z 0-9

Another Day Bass Tabs – Slick Shoes

CD, Sheet music, Poster

Do you like Another Day? Share with your friends now
Bass Tabs
I had problems with this song but everything's smoothed out now and I think it's a pretty
damn good tab:) the order of the parts of the song is correct and those parts are played
one after another, as written in this tab! I hope you enjoy it, feel free to mail me for
mistakes and stuff like that.

volume - normal
Bass - +4
Mid - +4
High - +6
Shape (on) - 0

Intro

G ------------------------------------------------------|
D ------------------------------------------------------|
A ----8-8--8--8-8-8--------------------------xx3-1-1-1--|
E -8----------------6-6--6--6-6-6--1-1--1--1------------|

G ------------------------------------------------------|
D ------------------------------------------------------|
A -8-8--8--8---3-3--3--3----------5-5-5-5-5-5-5-5----3--|
E -------------------------1-1--1-----------------------|

G -------------------------------------------------------------------------|
D -------------------------------------------------------------------------|
A ----------------1-1--1--1-1-1-----------------x3-x1------------3-3--3--3-|
E -1-1--1--1-1-1-----------------1-1--1--1------------1-1--1--1------------|

=============================================================================

Verse
G ---------------------------------------------------------------|
A ---------------------------------------------------------------|
D -8--8(x12)-5(x11)-3--1--1-1-1-1--1---3--3-3-3-3--3---8(x12)----|   repeat x2
G ------------------------------------------------------------8--|

=============================================================================
Chorus
G -----------------------------------------------------------|
D -----------------------------------------------------------|
A -1--1--1-1-1---3--3-3--3-3-3---------------0--0-0--0-0-0-0-|
E -----------------------------1--1--1-1-1-------------------|

G ----------------------------------------------------------------|
D ----------------------------------------------------------------|
A --1--1---1-1-1--3--3-3--3-3-3---8-8-8--10-10-10-12--5-5-5--8--3-|
E ----------------------------------------------------------------|

G ----------------------------------------------------------------|
D ----------------------------------------------------------------|
A -1--1--1-1-1--3--3-3--3-3-3--8--8--8-8-8--7--7-7--7-7-7---------|
E ----------------------------------------------------------------|


G ------------------------------|
D ------------------------------|
A -1--1--1-1-1--3--3-3--3-3-3-3-|
E ------------------------------|
=============================================================================
Verse 2
          repeat this 3 times             this is the fourth time
G ------------------------------ ---------------------------------------------|
D ------------------------------ ----10-------10------7--------7--------------|
A --8(x8)--5(x8)--1(x8)--3(x8)-- -8-8---8-8-8---8--5-5--5-5-5-5--1(x8---------|3(x8)
E ------------------------------ ---------------------------------------------|
=============================================================================
repeat Chorus
=============================================================================
this is the part after that chorus

G ------------------------------------------------|
D ------------------------------------------------|
A ---8---8---8--7---7---7--5---5---5--7---7---7---| repeat this twice
E ------------------------------------------------|

G ------------------------------------------------------------------------|
D --------------------------------------------------3-----3-------5-------|
A --8---8---8--7---7---8--5---5---7--3---3---3----1---------1---3---------|
E ------------------------------------------------------------------------|

slow part:
G -5-let ring-------------------------------------------------|
D -3--3-3-3-3-3-3--2--2-2-2-2-2-2-----------------------------|
A ------------------------------------------------------------|
E --------------------------------1--1-1-1-1-1-1-1-1-1-0--1-0-|

G ----------------------------------------------------------------------------|
D 10---------12---------9---------10------------------------------------------|
A -8---(x8)--10---(x8)--7---(x8)---8---(x8)--8-8-8-7--8--7--------------------|
E ----------------------------------------------------------------------------|
=============================================================================
Final part:

G ------------------------------------------------------------|
D ------------------------------------------------------------|
A -----------------------------------------------8---8---8----|
E -1-1--1-1-1---1-3-3--3-3-3--3-0-0---0-0-0---x-------------8-|

G ------------------------------------------------------------|
D ------------------------------------------------------------|
A -8-8--8-8-8--8-10-10--10-10-10--10-7-7--7-7-7---xx--8-7-8-7-|
E ------------------------------------------------------------|

G -------------------------------------------------------------|
D -------------------------------------------------------------|
A -8-8--8-8-8--8-10-10--10-10-10--10-7-7--7-7-7--x--8x-8x-8x-8-|
E -------------------------------------------------------------|

G -------------------------------------------------10--9-------|
D -------------------------------------------------------------|
A -8-8--8-8-8--8-10-10--10-10--10--10--------------------------|
E --------------------------------------8----------------------|





Comments


Popular Slick Shoes tabs & chords
For Better, For Worse Bass Tabs
Learn To Unlearn 1 Bass Tabs
Losing Sight 1 Bass Tabs
Now's The Time Bass Tabs
Silence Bass Tabs
Silence 1 Bass Tabs
Angel Tabs
Bounce Intro Tabs
Hide & Seek Tabs
Remember Tabs


Song lyrics



↑ Back to top | Tablatures and chords are parodies/interpretations of the original songs. You may use it for private study, scholarship, research or language learning purposes only
© 2014 AZChords.com Contact us | Privacy policy | DMCA | Add/correct tabs | Request tabs | Top 50 tabs