» » »

Always There Tabs (ver.1)

Artists:  A B C D E F G H I J K L M N O P Q R S T U V W X Y Z # 

Always There Tabs (ver.1)

Slick Shoes
Rating:
3/5 (2 votes)

Hard to play? Try these video lessons and learn fast.
                



INTRO (Sorry I don't know the 2nd guitar part)

E --------3------------------------------------------------------------|
A --2--4--5--7-slide-9-------------------------------------------------|
D --4--6--5------------------------------------------------------------|
G --4--6-----9-slide-11------------------------------------------------|
B ---------------------------------------------------------------------|
e ---------------------------------------------------------------------|

VERSE

E -7-pm--5--7-pm--5--3-pm--2--5----------------------------------------|
A -9-----7--9-----7--5-----5--7----------------------------------------|
D -9-----7--9-----7--5-----5--7----------------------------------------|
G ---------------------------------------------------------------------|
B ---------------------------------------------------------------------|
e -------|--------|----------------------------------------------------|

BRIDGE

E -3-3-------5-5-------------------------------------------------------|
A -5-5--9----7-7--10---------------------------------------------------|
D -5-5-------7-7-------------------------------------------------------|
G ------11--------12---------------------------------------------------|
B ---------------------------------------------------------------------|
e ---------------------------------------------------------------------|

CHORUS

E --------------------2-pm--3-pm---------------------------------------|
A -5--4--5--7--5--4---5-----5------------------------------------------|
D -7--7--7-----7--7---5-----5------------------------------------------|
G -7--7--7--9--7--7----------------------------------------------------|
B ---------------------------------------------------------------------|
e ---------------------------------------------------------------------|

AFTER THE 2ND CHORUS
                      "Meeeeeeeee 
E --5---2--3--x4-then--9---6-------7-----------------------------------|
A --7---5--5-----------7---8-------9-----------------------------------|
D --7---5--5-----------7---8-------9-----------------------------------|
G ---------------------------------------------------------------------|
B ---------------------------------------------------------------------|
e ---------------------------------|-----------------------------------|


SOLO
(I dont know the solo!! Here is the other guitar part)

E -3--5---7--9---3--5---7--9---3--2---7--9---3--2----------------------|
A -5--7---9--11--5--7---9--11--5--5---9--11--5--5----------------------|
D -5--7---9--11--5--7---9--11--5--5---9--11--5--5----------------------|
G ---------------------------------------------------------------------|
B ---------------------------------------------------------------------|
e ---------------------------------------------------------------------|


ENDING


E -3-3-------5-5-------3--3------5-pm----------------------------------|
A -5-5--9----7-7--10---5--5--9---7-------------------------------------|
D -5-5-------7-7-------5--5------7-------------------------------------|
G ------11--------12---------11----------------------------------------|
B ---------------------------------------------------------------------|
e ---------------------------------------------------------------------|

(* | = single hit)

Phew!! This Album has some amazing playing on it which means I
Couldn't tab the second guitar, sorry!! Listen to the cd as the chords
shown are just the chords......well you get it, have fun.
            
Hard to play? Try these video lessons and learn fast. | Correct




comments powered by Disqus
↑ Back to top | Tablatures and chords are parodies/interpretations of the original songs. You may use it for private study, scholarship, research or language learning purposes only