» » »

Demons Chords (ver.1)

Artists:  A B C D E F G H I J K L M N O P Q R S T U V W X Y Z # 

Demons Chords (ver.1)

Sleigh Bells
Rating:
0/5 (0 votes)

Hard to play? Try these video lessons and learn fast.
                Basically this goes through the whole song

e-------------------------------------------------------|
B-------------------------------------------------------|
G------------------5---7---4-----4-4-4---7--9--10-------|
D---7-----7-7-7----5---7---4-----4-4-4---7--9--10-------|
A---7-----7-7-7----3---5---2-----2-2-2---5--7--8--------|
E---5-----5-5-5-----------------------------------------|



The mini solo after "..and when I die, hang me high" at 1:05

e |------------------------------------------------|
B |------------------12--14--15--------------------|
G |--9--12--14--11---------------------------------|
D |------------------------------------------------|
A |------------------------------------------------|
E |------------------------------------------------|


and the little guitar at 1:30  "...which way will the heavenly go..."

e  -----10--12--------10--12--------|
B  --10------------10---------10----|
G  ---------------------------------|
D  ---------------------------------|
A  ---------------------------------|
E  ---------------------------------|

You drink the wise blood
You're gonna hear about it
You'll be taken down brick by brick by brick

Burn the orphanage
You're gonna pay for it
They will purify block by block by block

Come on
You've got a vision
You're on a mission

Live on
And when I die, hang me high

They're gonna bury you
They're gonna finish
They're gonna stand em up six by six by six
You pull the hood back
I wanna know
Which way will the heavenly go

Taken down, taken down, taken down
Taken down, taken down, taken down
Taken down, taken down, taken down
Taken down, taken down, taken down

Come on
You've got a vision
You're on a mission

Live on
And when I die, hang me high


And you will answer to no one else but me
            
Hard to play? Try these video lessons and learn fast. | Correct




comments powered by Disqus
↑ Back to top | Tablatures and chords are parodies/interpretations of the original songs. You may use it for private study, scholarship, research or language learning purposes only