» » »

Sleigh Bells, Comeback Kid Tabs (ver.2)

Artists:  A B C D E F G H I J K L M N O P Q R S T U V W X Y Z # 

Comeback Kid Tabs (ver.2)

Sleigh Bells Tabs
 Rating:
3.8/5 (5 votes)
Comeback Kid lessons Tabs too difficult? Try these video lessons and learn fast
1
                -------------------------------------------------------------------------------
                             COMEBACK KID - Sleigh Bells
-------------------------------------------------------------------------------

Tuning: Half-Step Down (Eb, Ab, Db, Gb, Bb, eb)

 If you're going to use an electric guitar, just put your overdrive/distortion on.

  Intro:
|-------------------------------------------------------------------------|
|-------------------------------------------------------------------------|
|-------------------------------------------------------------------------|
|-6---66---6---66---66---66---6---6-6---6---6-6---6-----------------------|
|-6---66---6---66---66---66---6---6-6---6---6-6---6-----------------------|
|-4---44---4---44---44---44---4---4-4---4---4-4---4-----------------------|

  Verse:
|-------------------------------------------------------------------------|
|-------------------------------------------------------------------------|
|-----------5555--555-----------------------------------------------------|
|-6666--666-5555--555-4444--444-8888-/-7777-------------------------------|
|-6666--666-3333--333-4444--444-8888-/-7777-------------------------------|
|-4444--444-----------2222--222-6666-/-7777-------------------------------|


  Verse 2/Chorus:  
|---------------------------------------------------------------------------|
|---------------------------------------------------------------------------|
|----------8888-888-10101010-101010-9999-999-------------------10101010-----|
|-6666-666-8888-888-8-8-8-8--8-8-8--9999-999-6666-666-8888-888-10101010-----|
|-6666-666-6666-666-8-8-8-8--8-8-8--7777-777-6666-666-6666-666-8-8-8-8------|
|-4444-444-----------------------------------4444-444-----------------------|

|---------------------------------------------------------------------------|
|---------------------------------------------------------------------------|
|-101010-11111111-111111----------------------------------------------------|
|-101010-11111111-111111----------------------------------------------------|
|-8-8-8--9-9-9-9--9-9-9-----------------------------------------------------|
|---------------------------------------------------------------------------|

  Bridge:
|-3-----0-3-----3-----0-4---------------------------------------------------|
|-1-----2-1-----1-----2-2---------------------------------------------------|
|---------------------------------------------------------------------------|
|---------------------------------------------------------------------------|
|---------------------------------------------------------------------------|
|---------------------------------------------------------------------------|

  Backing Section(It's not a rhythm section, so I don't know what else to call it):
|----7----|
|-8---8---| Let the last note ring for
|---------| a while, then repeat as needed
|---------|
|---------|
|---------|


  Solo:
|-6---------6---------6---------6--7--6-------------------------------------|
|---7p6h7-----7p6h7-----7p6h7-----------------------------------------------|
|---------------------------------------------------------------------------|
|---------------------------------------------------------------------------|
|---------------------------------------------------------------------------|
|---------------------------------------------------------------------------|


 Tab Structure (w/ accompanying lyrics)

  Intro x3, Backing section enters

I know its hard but                      |       
youve gotta deal with it                 |
why dont you look around                 |
show me what youre made of               |---- Verse x2
dont turn around                         |
go get your gun ready                    |
everyday theres a way to do it just right|

dont wanna take it and just say it as i saw         |
youd never know, just where you gotta go            |---- Verse 2/Chorus
dont wanna take it and just say it as i saw         |
youd never know, just where you gotta go            |
dont run away cause thats the deal with it          |
you gotta turn around, never let your guard down    |---- Verse x2
ill see you but i know its gonna save you baby      |
you always run around breaking all the rules with it|

i know you tried so hard, but you cant even win      |
you gotta try a little harder, youre the comeback kid|---- Verse 2/Chorus
i know you tried so hard, but you cant even win      |
you gotta try a little harder, you’re the comeback kid|

youre gone away but, youll come back some day|---- Bridge
youre gone away but, youll come back some day|

Verse x2

i know its hard but                      |
youve gotta deal with it                 |
why dont you look around                 |
show me what youre made of               |---- Verse x2
dont turn around                         |
go get your gun ready                    |
everyday theres a way to do it just right|

i wanna take it and just say it as i saw|
you never know, just where you gotta go |---- Verse 2/Chorus
i wanna take it and just say it as i saw|
you never know, just where you gotta go |

youre gone away but, youll come back some day|---- Bridge x2
youre gone away but, youll come back some day|

Solo x2, Verse x2

i know you tried so hard, but you cant even win      |
you gotta try a little harder, youre the comeback kid|---- Verse x2
i know you tried so hard, but you cant even win      |
you gotta try a little harder, youre the comeback kid|

youre gone away but, youll come back some day|---- Bridge x2
youre gone away but, youll come back some day|

End with Bridge x2

Just keep in mind that this is my first tab, so there are bound to be some errors 
think you should have fun with this. ENJOY!

************************************

| /   slide up
| \   slide down
| h   hammer-on
| p   pull-off
| ~   vibrato
| +   harmonic
| x   Mute note
| b   Bend
| pb  Pre-bend
| br  Bend release
| pbr Pre-bend release
| brb Bend release bend

************************************
            
Submit corrections

comments powered by Disqus
↑ Back to top | Sleigh Bells Tabs for Comeback Kid. Lyrics for acoustic guitar and electric guitar. 1 Tablatures and chords are parodies/interpretations of the original songs. You may use it for private study, scholarship, research or language learning purposes only