» » »

With Ears To See And Eyes To Hear Tabs (ver.1)

Artists:  A B C D E F G H I J K L M N O P Q R S T U V W X Y Z # 

With Ears To See And Eyes To Hear Tabs (ver.1)

Sleeping With Sirens
Rating:
3/5 (2 votes)

Tabs too difficult? Try these video lessons and learn fast.
                -------------------------------------------------------------------------------
                        Sleeping With Sirens- With Ears To See And Eyes To Hear Acoustic
-------------------------------------------------------------------------------

Tuning: whole step down


Intro

Guitar 1
 
d|-----------------------0---------------------0----| 
A|---------------0----------------------0-----------| 
F|----------(6)-------------------------------------| x2 
C|-------6-----------6--------------(7)----7--------| 
G|----4---------------------------7-----------------| 
D|-----------------------------5--------------------| 

Guitar 2 

d|--------------------0--0--0-------------------------12----11----9----11----11-| 
A|---4-5-/7--5-7-/9---7--5--4--4-5-/7--5-7-/9---9-/12----12----12---12----12----|
F|------------------------------------------------------------------------------| 
C|------------------------------------------------------------------------------| 
G|------------------------------------------------------------------------------| 
D|------------------------------------------------------------------------------| 


Verse 1 (true friends lie underneath...) 

Guitar 1 
d|-----------------------0---------------------0----| 
A|---------------0----------------------0-----------| 
F|----------(6)-------------------------------------| x2 
C|-------6-----------6--------------(7)----7--------| 
G|----4---------------------------7-----------------| 
D|-----------------------------5--------------------| 

Guitar 2

d|-------------------------------------0--0--0-------------------------12----11----9----11----11-| 
A|---4-5-/7--5-7-/9---4-5-/7--5-7-/9---7--5--4--4-5-/7--5-7-/9---9-/12----12----12---12----12----| 
F|-----------------------------------------------------------------------------------------------| 
C|-----------------------------------------------------------------------------------------------|
G|-----------------------------------------------------------------------------------------------|
D|-----------------------------------------------------------------------------------------------| 


Lie, lie, liar... 

Guitar 1 
d|--0------0--| 
A|--0------0--| 
F|--6------2--| x4 
C|--6------2--| 
G|--4------0--| 
D|--x------0--| 

Guitar 2 

d|------------------------------------0--0--0-------------------------12----11----9----11----11-| 
A|--4-5-/7--5-7-/9---4-5-/7--5-7-/9---7--5--4--4-5-/7--5-7-/9---9-/12----12----12---12----12----|
F|----------------------------------------------------------------------------------------------| x2
C|----------------------------------------------------------------------------------------------| 
G|----------------------------------------------------------------------------------------------| 
D|----------------------------------------------------------------------------------------------|


Chorus 1 (so tell me how does it feel...) 

Guitar 1 

d|--0------0------0------0------x---------0------0------0------0--| 
A|--5------0------0------0------x---------5------0------0------0--| 
F|--6------2------1------4------5---------6------2------1------4--| 
C|--6------2------2------4------5---------6------2------2------4--|
G|--4------0------2------2------3---------4------0------2------2--| 
D|--x------0------0------x------x---------x------0------0------x--| 

Guitar 2 

d|--0------x------x------x------x---| 
A|--0------x------x------x------x---| 
F|--6------9------13-----11-----x---| x2 
C|--6------9------x------11-----7---| 
G|--4------7------11-----9------7---| 
D|--x------x------x------x------5---| 


Post chorus (instrumental) 

Guitar 1 

d|--0------0--| 
A|--0------0--|
F|--6------2--| x2 
C|--6------2--| 
G|--4------0--| 
D|--x------0--| 

Guitar 2 

d|------------------------------------0--0--0-------------------------12----11----9----11----11-| 
A|--4-5-/7--5-7-/9---4-5-/7--5-7-/9---7--5--4--4-5-/7--5-7-/9---9-/12----12----12---12----12----| 
F|----------------------------------------------------------------------------------------------| 
C|----------------------------------------------------------------------------------------------| 
G|----------------------------------------------------------------------------------------------| 
D|----------------------------------------------------------------------------------------------| 


Verse 2 (falling over and over again...) 

Guitar 1 

d|--0------0--| 
A|--0------0--| 
F|--6------2--| x4 
C|--6------2--| 
G|--4------0--| 
D|--x------0--| 

Guitar 2 

d|------------------------------------0--0--0-------------------------12----11----9----11----11-| 
A|--4-5-/7--5-7-/9---4-5-/7--5-7-/9---7--5--4--4-5-/7--5-7-/9---9-/12----12----12---12----12----| 
F|----------------------------------------------------------------------------------------------| x2
C|----------------------------------------------------------------------------------------------| 
G|----------------------------------------------------------------------------------------------| 
D|----------------------------------------------------------------------------------------------| 


Chorus 2 (same as chorus 1) 


Bridge (come down now, come down from your tower now...) 

Both guitars
 
d|--x--| 
A|--x--| 
F|--6--| strum several times 
C|--6--| 
G|--4--| 
D|--x--| 


Outro (come down, come down from your tower...) 

Both guitars 

d|--0------0------0------0--| 
A|--0------0------0------0--| 
F|--1------4------6------2--| x3 
C|--2------4------6------2--| 
G|--2------2------4------0--| 
D|--0------x------x------x--| 

d|--0------0------0------0--| 
A|--0------0------0------0--| 
F|--1------4------6------2--| strum each chord once 
C|--2------4------6------2--| 
G|--2------2------4------0--| 
D|--0------x------x------x--| 


************************************ | 
/ slide up | 
\ slide down | 
h hammer-on | 
p pull-off | 
~ vibrato | 
+ harmonic | 
x Mute note | 
b Bend | 
pb Pre-bend | 
br Bend release | 
pbr Pre-bend release | 
brb Bend release bend
************************************
            
Tabs too difficult? Try these video lessons and learn fast.




comments powered by Disqus
↑ Back to top | Tablatures and chords are parodies/interpretations of the original songs. You may use it for private study, scholarship, research or language learning purposes only