» » »

With Ears To See And Eyes To Hear Tabs (ver.2)

Artists:  A B C D E F G H I J K L M N O P Q R S T U V W X Y Z # 

With Ears To See And Eyes To Hear Tabs (ver.2)

Sleeping With Sirens
Rating:
5/5 (3 votes)

Hard to play? Try these video lessons and learn fast.
                With Ears to See and Eyes to Hear {ACOUSTIC)
Sleeping With Sirens.

Update: These are tabs that go along to Sleeping With Sirens' acoustic version of 
this song. I'm positive they're accurate. 
_____________

Tuning: DGCFAd

Intro: 
d|---------------------0-----------------------0-------| 
A|-----------0---------0-------------0---------0-------| 
F|-----------------------------------------------------| x2 
C|-----6---------6-------------6---------6-------------| 
G|---4---4------------------0-----0--------------------| 
D|-----------------------------------------------------| 


d|--0------0--| 
A|--0------0--| 
F|--6------2--| x6
C|--6------2--| 
G|--4------0--| 
D|--x------0--| 


True friends lie underneath the witty words I don't believe
I can't believe a damn thing they say anymore
Lie, lie, liar. Liar, you'll pay for your sins.
Lie, lie, liar. Liar, you'll pay for your sins.


d|--0------0------0-----(x)----0------x---------0------0------0------0--| 
A|--5------0------0-----(x)----0------x---------5------0------0------0--| 
F|--6------2------1--Or-(9)----4------5---------6------2------1------4--| 
C|--6------2------2-----(9)----4------5---------6------2------2------4--|
G|--4------0------2-----(7)----2------3---------4------0------2------2--| 
D|--x------0------0-----(x)----x------x---------x------0------0------x--|

So tell me, how does it feel, how does it feel to be like you?
I think your mouth should be quiet, cause it never tells the truth.
So tell me, so tell me why? Why does it have to be this way?
Why can't things ever change?

d|--0------0--| 
A|--0------0--| 
F|--6------2--| x4 
C|--6------2--| 
G|--4------0--| 
D|--x------0--| 

Fallin' over and over again, from all the words that you have said
It's rainin' on my heart for everyone to see


d|--0------0------0-----(x)----0------x---------0------0------0------0--| 
A|--5------0------0-----(x)----0------x---------5------0------0------0--| 
F|--6------2------1--Or-(9)----4------5---------6------2------1------4--| 
C|--6------2------2-----(9)----4------5---------6------2------2------4--|
G|--4------0------2-----(7)----2------3---------4------0------2------2--| 
D|--x------0------0-----(x)----x------x---------x------0------0------x--|

So tell me, how does it feel, how does it feel to be like you?
I think your mouth should be quiet, cause it never tells the truth.
So tell me, so tell me why? Why does it have to be this way?
Why can't things ever change


d|--x--| 
A|--x--| 
F|--6--| strum several times 
C|--6--| 
G|--4--| 
D|--x--| 


Come down now, come down from your tower now
Come down now, from your tower, oh


Outro (come down, come down from your tower...) 

d|--0------0------0------0--| 
A|--0------0------0------0--| 
F|--1------4------6------2--| x3 
C|--2------4------6------2--| 
G|--2------2------4------0--| 
D|--0------x------x------x--| 

d|--0------0------0------0--| 
A|--0------0------0------0--| 
F|--1------4------6------2--| strum each chord once 
C|--2------4------6------2--| 
G|--2------2------4------0--| 
D|--0------x------x------x--|
            
Hard to play? Try these video lessons and learn fast. | Correct




comments powered by Disqus
↑ Back to top | Tablatures and chords are parodies/interpretations of the original songs. You may use it for private study, scholarship, research or language learning purposes only