» » »

Sleeping With Sirens, The Bomb Dot Com V 2 Tabs (ver.1)

Artists:  A B C D E F G H I J K L M N O P Q R S T U V W X Y Z # 

The Bomb Dot Com V 2 Tabs (ver.1)

Sleeping With Sirens Tabs
 Rating:
4.5/5 (8 votes)
The Bomb Dot Com V 2 lessons Tabs too difficult? Try these video lessons and learn fast
1
                "(0)
-------------------------------------------------------------------------------
                             THE BOMB DOT COM V 2.0 – Sleeping With Sirens
-------------------------------------------------------------------------------

INTRO(2X)
|-----------------------|
|-----------------------|
|-------------------5---|
|---------------3-3--3--| 2x
|-00-00--00-00-7-7-7--7-|
|-00-00--00-00----------|
  .. ..  .. ..
|------------------------------------------------------13---|
|--------------11--11--11--11------------------11--11----11-|
|----------------14--14--14--14--------------14--14--14-----|
|-----------------------------------------------------------|
|-88-88--88-88------------------88-88--88-88----------------|2x
|-88-88--88-88------------------88-88--88-88----------------|
  .. ..  .. ..                  .. ..  .. ..
PRE-CHORUS
|---------------------------------------------------------------------------|
|---------------------------------------------------------------------------|
|-7tp-------------9tp-10tp-14tp-------12tp---10~-9~-------------------------|
|-----------8tp-------------------------------------------------------------|
|---------------------------------------------------------------------------|
|---------------------------------------------------------------------------|

CHORUS(2x)
|-10h8--------------------------10h8----------------------------------------|
|-----10h8-10131313101010108888-----10h8-101313131515151517171717-----------|
|---------------------------------------------------------------------------|
|---------------------------------------------------------------------------|
|---------------------------------------------------------------------------|
|---------------------------------------------------------------------------|

|-17h13-----------------------17h13-----------------------------------------|
|------15h17-18--18--18--18--------15h17-18--18--18—18----------------------|
|--------------21--21--21--21--------------21--21--21--21-------------------|
|---------------------------------------------------------------------------|
|---------------------------------------------------------------------------|
|---------------------------------------------------------------------------|

|-17tp---19tp-15tp----17tp15tp-17tp---19tp-15tp----13tp12tp------|
|----------------------------------------------------------------|
|----------------------------------------------------------------|
|-----------------------------------------------------------0~---|
|-----------------------------------------------------------0~---|
|-----------------------------------------------------------0~---|

VERSE
|-----------------------------------------------------|
|-----------------------------------------------------|
|------10tp-----9tp-12tp14tp-10tp-----9tp-12tp14tp----|
|-----------------------------------------------------|
|-----------------------------------------------------|
|-----------------------------------------------------|

PRE-CHORUS
CHORUS

BRIDGE
|---------------------------------------------------------------------------|
|---------------------------------------------------------------------------|
|---------------------------------------------------------------------------|
|-0-10-5~----5-5-0-10-5~----5-5-0-10-5~----5-5-0-10-5~----5-5---------------|
|-0-10-5~----5-5-0-10-5~----5-5-0-10-5~----5-5-0-10-5~----5-5---------------|
|-0-10-5~----5-5-0-10-5~----5-5-0-10-5~----5-5-0-10-5~----5-5---------------|

|--------------------------------------|
|-15/17171717171717--------18--18------|
|------------------14141414--21--21----|
|--------------------------------------|
|--------------------------------------|3x
|--------------------------------------|

BREAKDOWN
|---------------------------------------------------------------------------|
|---------------------------------------------------------------------------|
|---------------------------------------------------------------------------|
|---------------------------------------------------------------------------|
|-00-0~-000-0~-00-0~-000-0~-3*b-00-0~-000-0~-00-0~-000-000-000-00-00--------|
|-11-1~-111-1~-11-1~-111-1~-----11-1~-111-1~-11-1~-111-111-111-11-11--------|
  .. .  ... .  .. .  ... .      .. .  ... .  .. .  ... ... ... .. ..
CHORUS

Comment/rate please

************************************

| /   slide up
| h   hammer-on
| ~   vibrato
| *   pinch harmonic
| .   Mute note
| b   Bend

************************************
"            
Submit corrections

comments powered by Disqus
↑ Back to top | Sleeping With Sirens Tabs for The Bomb Dot Com V 2. Lyrics for acoustic guitar and electric guitar. 1 Tablatures and chords are parodies/interpretations of the original songs. You may use it for private study, scholarship, research or language learning purposes only