» » »

Sleeping With Sirens, Roger Rabbit Tabs (ver.3)

Artists:  A B C D E F G H I J K L M N O P Q R S T U V W X Y Z # 

Roger Rabbit Tabs (ver.3)

Sleeping With Sirens Tabs
 Rating:
4/5 (4 votes)
Roger Rabbit lessons Tabs too difficult? Try these video lessons and learn fast
1
                This is my first tab so there may be flaws in this but this is how I play it.

Legend:
\ - Slide Up
X (#) - Repeat "#" of Times
~ - Sustain Note

(The intro is credited to Fiúza (LiesGreedMisery), thank you!)

Standard Tuning:EBGDAe

Here is my rendition of this song:

E|-----2-------------5\2-------2-----------5\2-------------|
B|-------------3---------------------3---------------------|
G|---2---------------------2-------------------------------| X 4
D|-2---------2-----4------2-2------2-----4-----------------|
A|---------3-----5---------------3-----5-------------------|
E|---------------------------------------------------------|

Is there a right way for how this goes?
You got your friends, and you got your foes.
They want a piece of something hot,
Forget your name like they forgot.

Ain't that somethin'?

So I wanna see you crash and burn,
And criticize your every word.
I'm tryna' keep from goin' insane.
Ain't that the way of this whole damn thing?

E|-----2-------------5\2----0-----------------------------|
B|-------------3------------3-----------------------------|
G|---2----------------------0-(Strum until chorus starts)-|
D|-2---------2-----4--------2-----------------------------|
A|---------3-----5----------3-----------------------------|
E|--------------------------x-----------------------------|
                      ______|
                     |
Trying to be something, more.


[|Chorus 1:|] (C, G, Am, and Cadd9 Chords, Figure out the strumming pattern, it's simple.)

E|-0-------------3----------------|
B|-1-------------3----------------|
G|-0-------------0----------------|
D|-2-------------0----------------|
A|-3-------------2----------------|
E|-0-------------3----------------|
   Nobody's gonna love you if,

E|-0--------------------0-----------------------|
B|-1--------------------3-----------------------|
G|-2--------------------0-----------------------|
D|-2--------------------2-----------------------|
A|-0--------------------3-----------------------|
E|-x--------------------x-----------------------|
   You can't display, a way to capture this.

E|-0-----------3---------------------|
B|-1-----------3---------------------|
G|-0-----------0---------------------|
D|-2-----------0---------------------|
A|-3-----------2---------------------|
E|-0-----------3---------------------|
   Nobody's gonna hold your hand,

E|-0---------------------------0----------------------------------|
B|-1---------------------------3----------------------------------|
G|-2---------------------------0----------------------------------|
D|-2---------------------------2----------------------------------|
A|-0---------------------------3----------------------------------|
E|-x---------------------------x----------------------------------|
   And guide you through and no, it's up for you to understand.

E|-0-----------3---------------------|
B|-1-----------3---------------------|
G|-0-----------0---------------------|
D|-2-----------0---------------------|
A|-3-----------2---------------------|
E|-0-----------3---------------------|
   Nobody's gonna feel your pain,

E|-0-------------------3---------------------------------0-|
B|-1-------------------3---------------------------------1-|
G|-0-------------------0---------------------------------2-|
D|-2-------------------0---------------------------------2-|
A|-3-------------------2---------------------------------0-|
E|-0-------------------3---------------------------------x-|
   When all is done and it's time for you to walk away.

E|-0--------------------------0----------3~----------------------------|
B|-3--------------------------1----------3~----------------------------|
G|-0--------------------------0----------0~----------------------------|
D|-2--------------------------2----------0~----------------------------|
A|-3--------------------------3----------2~----------------------------|
E|-x--------------------------0----------3~----------------------------|
   So when you have today, You should say all that you have to say.


[|Verse 2|]:

E|-----2-------------5\2-------2-----------5\2-------------|
B|-------------3---------------------3---------------------|
G|---2---------------------2-------------------------------| X 2
D|-2---------2-----4------2-2------2-----4-----------------|
A|---------3-----5---------------3-----5-------------------|
E|---------------------------------------------------------|

Say all that you have to say.

Is there a right way for being strong?
Feels like I'm doing things all wrong.
Still I'm here just holdin' on.
Confess my heart and forgive my wrongs.

E|-----2-------------5\2----0-----------------------------|
B|-------------3------------3-----------------------------|
G|---2----------------------0-(Strum until chorus starts)-|
D|-2---------2-----4--------2-----------------------------|
A|---------3-----5----------3-----------------------------|
E|--------------------------x-----------------------------|
                            |_
                              |
Just tryna' show you something, more.


[|Chorus 2:|] (Ending is a little different because it goes into the breakdown)

E|-0-------------3----------------|
B|-1-------------3----------------|
G|-0-------------0----------------|
D|-2-------------0----------------|
A|-3-------------2----------------|
E|-0-------------3----------------|
   Nobody's gonna love you if,

E|-0--------------------0-----------------------|
B|-1--------------------3-----------------------|
G|-2--------------------0-----------------------|
D|-2--------------------2-----------------------|
A|-0--------------------3-----------------------|
E|-x--------------------x-----------------------|
   You can't display, a way to capture this.

E|-0-----------3---------------------|
B|-1-----------3---------------------|
G|-0-----------0---------------------|
D|-2-----------0---------------------|
A|-3-----------2---------------------|
E|-0-----------3---------------------|
   Nobody's gonna hold your hand,

E|-0---------------------------0-----------------------------------|
B|-1---------------------------3-----------------------------------|
G|-2---------------------------0-----------------------------------|
D|-2---------------------------2-----------------------------------|
A|-0---------------------------3-----------------------------------|
E|-x---------------------------x-----------------------------------|
   And guide you through and no, it's up for you to understand.

E|-0-----------3---------------------|
B|-1-----------3---------------------|
G|-0-----------0---------------------|
D|-2-----------0---------------------|
A|-3-----------2---------------------|
E|-0-----------3---------------------|
   Nobody's gonna feel your pain,

E|-0-------------------3---------------------------------0--|
B|-1-------------------3---------------------------------1--|
G|-0-------------------0---------------------------------2--|
D|-2-------------------0---------------------------------2--|
A|-3-------------------2---------------------------------0--|
E|-0-------------------3---------------------------------x--|
   When all is done and it's time for you to walk away.

E|-0--------------------------0----------3-----------------------------|
B|-3--------------------------1----------3-----------------------------|
G|-0--------------------------0----------0-----------------------------|
D|-2--------------------------2----------0-----------------------------|
A|-3--------------------------3----------2-----------------------------|
E|-x--------------------------0----------3-----------------------------|
   So when you have today, You should say all that you have to say.


[|Breakdown|]:

E|-0------------------------------------------------0--------------------------------------|
B|-1------------------------------------------------3--------------------------------------|
G|-2------------------------------------------------0--------------------------------------|
D|-2------------------------------------------------2--------------------------------------|
A|-0------------------------------------------------3--------------------------------------|
E|-x------------------------------------------------x--------------------------------------|
   Don't point the blame when you can't find nothin'. Look to yourself, and you might 
find something.

E|-0----------------------------0-----------------------------------------|
B|-1----------------------------3-----------------------------------------|
G|-2----------------------------0-----------------------------------------|
D|-2----------------------------2-----------------------------------------|
A|-0----------------------------3-----------------------------------------|
E|-x----------------------------x-----------------------------------------|
   It's time that we sorted out, All of the things, we complain about.

E|-0-------------------------------------0----------------------------------------0--|
B|-1-------------------------------------3----------------------------------------1--|
G|-2-------------------------------------0----------------------------------------0--|
D|-2-------------------------------------2----------------------------------------2--|
A|-0-------------------------------------3----------------------------------------3--|
E|-x-------------------------------------x----------------------------------------0--|
So listen close to the sound of your soul, Take back a life we lived once before.

E|-3----------------------------0--|
B|-3----------------------------1--|
G|-0----------------------------0--|
D|-0----------------------------2--|
A|-2----------------------------3--|
E|-3----------------------------0--|
   If it ain't you, then who?

E|-3-----------------------------------------------|
B|-3-----------------------------------------------|
G|-0-----------------------------------------------|
D|-0-----------------------------------------------|
A|-2-----------------------------------------------|
E|-3-----------------------------------------------|
   If it ain't you, then who is gonna love you?


[|Chorus 3|]:

E|-0-------------3----------------|
B|-1-------------3----------------|
G|-0-------------0----------------|
D|-2-------------0----------------|
A|-3-------------2----------------|
E|-0-------------3----------------|
   Nobody's gonna love you if,

E|-0--------------------0-----------------------|
B|-1--------------------3-----------------------|
G|-2--------------------0-----------------------|
D|-2--------------------2-----------------------|
A|-0--------------------3-----------------------|
E|-x--------------------x-----------------------|
   You can't display, a way to capture this.

E|-0-----------3---------------------|
B|-1-----------3---------------------|
G|-0-----------0---------------------|
D|-2-----------0---------------------|
A|-3-----------2---------------------|
E|-0-----------3---------------------|
   Nobody's gonna hold your hand,

E|-0---------------------------0-----------------------------------|
B|-1---------------------------3-----------------------------------|
G|-2---------------------------0-----------------------------------|
D|-2---------------------------2-----------------------------------|
A|-0---------------------------3-----------------------------------|
E|-x---------------------------x-----------------------------------|
   And guide you through and no, it's up for you to understand.

E|-0-----------3---------------------|
B|-1-----------3---------------------|
G|-0-----------0---------------------|
D|-2-----------0---------------------|
A|-3-----------2---------------------|
E|-0-----------3---------------------|
   Nobody's gonna feel your pain,

E|-0-------------------3---------------------------------0-|
B|-1-------------------3---------------------------------1-|
G|-0-------------------0---------------------------------2-|
D|-2-------------------0---------------------------------2-|
A|-3-------------------2---------------------------------0-|
E|-0-------------------3---------------------------------x-|
   When all is done and it's time for you to walk away.

E|-0--------------------------0----------3---------------------------0-|
B|-3--------------------------1----------3---------------------------1-|
G|-0--------------------------0----------0---------------------------2-|
D|-2--------------------------2----------0---------------------------2-|
A|-3--------------------------3----------2---------------------------0-|
E|-x--------------------------0----------3---------------------------x-|
   So when you have today, You should say all that you have to say.


[|Ending|]:

E|-0------------------------0----------3~----------------------------|
B|-3------------------------1----------3~----------------------------|
G|-0------------------------0----------0~----------------------------|
D|-2------------------------2----------0~----------------------------|
A|-3------------------------3----------2~----------------------------|
E|-x------------------------0----------3~----------------------------|
   So when you have today, Say all that you have to say.

__________________________________________________

Thank you all, please rate and tell me how I did, I would like some
feedback on better ways to play it so I can improve it for you all!
Hope you all liked it and I may make more tabs in the future!
            
Submit corrections

comments powered by Disqus
↑ Back to top | Sleeping With Sirens Tabs for Roger Rabbit. Lyrics for acoustic guitar and electric guitar. 1 Tablatures and chords are parodies/interpretations of the original songs. You may use it for private study, scholarship, research or language learning purposes only