» » »

Sleeping With Sirens, Lets Cheers To This Bass tabs (ver.2)

Artists:  A B C D E F G H I J K L M N O P Q R S T U V W X Y Z # 

Lets Cheers To This Bass tabs (ver.2)

Sleeping With Sirens Tabs
 Rating:
4/5 (4 votes)
Lets Cheers To This lessons Tabs too difficult? Try these video lessons and learn fast
                Tuning: Drop C (CGCF)

Intro
F|------------------------------------------------------------------------|
C|------------------------------------------------------------------------|
G|--------------------------------------12-12-1212-------12-12-1212-------|
C|-33333333-33333333-555555555-55555555-----------7-7-77------------7-7-77|

F|--------------------------------------------------------------------------|
C|--------------------------------------------------------------------------|
G|---------------------------------------12--12--12-12----------------------|
C|-33333333-33333333-555555555-55555555---------------7-7-77--00--00--7\----|

Verse
F|-----------------------------------------------------------------|
C|-----------------------------------------------------------------|
G|-----------------------------------------------------------------|
C|-7-7-77--7-7-77--6-6-66--6-6-66--5-5-55--5-5-55--4-4-44--4-4-44--|x2

Pre-Chorus
F|------------|
C|------------|
G|------------|
C|-5>>>-5-5-5-|

Chorus
F|------------------------------------------------------------------------|
C|------------------------------------------------------------------------|
G|--------------------------------------12-12-1212-------12-12-1212-------|
C|-33333333-33333333-555555555-55555555-----------7-7-77------------7-7-77|x3

F|--------------------------------------------------------------------------|
C|--------------------------------------------------------------------------|
G|---------------------------------------12--12--12-12----------------------|
C|-33333333-33333333-555555555-55555555---------------7-7-77--00--00--12\---|

Verse
F|-----------------------------------------------------------------|
C|-----------------------------------------------------------------|
G|-----------------------------------------------------------------|
C|-7-7-77--7-7-77--6-6-66--6-6-66--5-5-55--5-5-55--4-4-44--4-4-44--|x2

Pre-Chorus 2
F|-----------------------------|
C|-----------------------------|
G|--------5~-------------------|
C|-7~/-5~----7~/-5~/-0~-5-5-5/-|

Chorus
F|------------------------------------------------------------------------|
C|------------------------------------------------------------------------|
G|--------------------------------------12-12-1212-------12-12-1212-------|
C|-33333333-33333333-555555555-55555555-----------7-7-77------------7-7-77|x3

F|--------------------------------------------------------------------------|
C|--------------------------------------------------------------------------|
G|---------------------------------------12--12--12-12----------------------|
C|-33333333-33333333-555555555-55555555---------------7-7-77--00--00--12\---|

Bridge/Breakdown
F|--------------------------------------------------------------------|
C|--------------------------------------------------------------------|
G|--------------------------------------------------------------------|
C|-0000000-------00000000--------0-12/-0000000--------0000000-------0-|

Chorus
F|------------------------------------------------------------------------|
C|------------------------------------------------------------------------|
G|--------------------------------------12-12-1212-------12-12-1212-------|
C|-33333333-33333333-555555555-55555555-----------7-7-77------------7-7-77|x3

F|--------------------------------------------------------------------------|
C|--------------------------------------------------------------------------|
G|---------------------------------------12--12--12-12----------------------|
C|-33333333-33333333-555555555-55555555---------------7-7-77--00--00--12\---|

Outro
F|-----------------------------|
C|-----------------------------|
G|---------12>>---------12>>---|
C|-0000000------0000000------0-|
            
Submit corrections

comments powered by Disqus
↑ Back to top | Sleeping With Sirens Bass for Lets Cheers To This. Lyrics for acoustic guitar and electric guitar. Tablatures and chords are parodies/interpretations of the original songs. You may use it for private study, scholarship, research or language learning purposes only