» » »

Sleeping With Sirens, If You Cant Hang Tabs (ver.4)

Artists:  A B C D E F G H I J K L M N O P Q R S T U V W X Y Z # 

If You Cant Hang Tabs (ver.4)

Sleeping With Sirens Tabs
 Rating:
4/5 (4 votes)
If You Cant Hang lessons Tabs too difficult? Try these video lessons and learn fast
                (Intro)
All of the other tabs for the intro of this song are incorrect.  The open B (A) string 
has a very distinctive sound in the recording.  This song is in the key of Em.  I love 
feedback, if you agree, disagree, or anything, please submit a comment.

Any questions, feel free to ask


This part is the opening clean riff

D------------------------------------------------------xxxx------------|
A------------------------------------------------------xxxx------------|
F------------------------------------------------------xxxx------------|
C--------5555555555555555---/9--9--9-----/4444444444---xxxx------------|
G--------7777777777777777---/10-10-10----/5555555555---xxxx------------|
C------------------------------------------------------xxxx------------|



D------------------------------------------------------------------------|
A------------------------------------------------------------------------|
F------------------------------------------------------------7-----------|
C--------5555555555555555---/9--9--9-----/4444444444---------x-----------|
G--------7777777777777777---/10-10-10----/5555555555-----0---5-----------|
C--------------------------------------------------------0---------------|
                                                       Distortion Here


     Lead guitar : (Note this is all on the B[G] string)
D----------------------------------------------------------------------|
A----7h8p7p3h5p0-8h10p8/5h7--------------------------------------------|
F----------------------------------------------------------------------|
C----------------------------------------------------------------------|  x2
G----------------------------------------------------------------------|
C----------------------------------------------------------------------|


                                    (These are 10 not 1,0's)
D------3333---5555---7777--5555--8-8-8-8-8-8-8-8---77777777------------|
A------5555---7777---8888--7777--1010101010101010--88888888------------|
F----------------------------------------------------------------------|
C----------------------------------------------------------------------|
G----------------------------------------------------------------------|
C----------------------------------------------------------------------|

                          REPEAT LAST 2 LINES TWICE



Rhythm Guitar:
D------------------------------------------0-0-0---------------------------|
A------------------------------------------3-3-3---------------------------|
F------------------------------------------4-4-4---------------------------|
C----2222222222222222----/555--000000000----------555555555555555555555555-|
G----2222222222222222----/555--000000000----------333333333333333333333333-|
C----2222222222222222----/555--000000000-----------------------------------|

D-------------------------------------------------------------------------|
A-------------------------------------------------------------------------|
F-------------------------------------------------------------------------|
C--777777-----------------------------------------------------------------|
G--555555-----------------------------------------------------------------|
C-------------------------------------------------------------------------|


I believe that this is the correct tabs, there may be a slight variation.
Hope this helps and enjoy the great song!
            
Submit corrections

comments powered by Disqus
↑ Back to top | Sleeping With Sirens Tabs for If You Cant Hang. Lyrics for acoustic guitar and electric guitar. Tablatures and chords are parodies/interpretations of the original songs. You may use it for private study, scholarship, research or language learning purposes only