» » »

Sleeping With Sirens, If You Cant Hang Tabs (ver.3)

Artists:  A B C D E F G H I J K L M N O P Q R S T U V W X Y Z # 

If You Cant Hang Tabs (ver.3)

Sleeping With Sirens Tabs
 Rating:
4/5 (4 votes)
If You Cant Hang lessons Tabs too difficult? Try these video lessons and learn fast
                All ive done is added a few things to the lead, as when i saw them live, Jack did some 
dissonant notes at the end of the hammer on/pull of thing. Rest of the credit goes to 
Krysta Madewell,who got everything else pretty much spot on 
 I don’t know if guitar two is right, but sounds it, listen to song for timing
Tuning:Drop C# (C# G# C# F# A# D#)

Guitar 1(Jack Fowler)

INTRO/CHORUS
e|-------------------------------------------------------------------------|
B|--------------------------------7--------7-7-9-9-11-11-9-9-12-12-11-11-11|
G|10h11h10----------11h13h13-8/10--10------8-8-8-8--8--8-8-8--8--8--8--8--8|
D|--------11h13h11--------------------X2!!---------------------------------|
A|-------------------------------------------------------------------------|
E|-------------------------------------------------------------------------|
Play Twice.


0:30
e|-------------------------------------------------------------------------|
B|-/7--------/11--------\4--------/9~-------/b7--------/11--------\4----/b9|
G|-------------------------------------------------------------------------|
D|-------------------------------------------------------------------------|
A|-------------------------------------------------------------------------|
E|-------------------------------------------------------------------------|

PRECHORUS
0:49
e|13---13---13----16---16---16----11---11---11----13---13---13-------------|
B|--14---14---14----14---14---14----14---14---14----14---14---14-----------|
G|----15---15---------15---15---------15---15---------15---15--------------|
D|-------------------------------------------------------------------------|
A|-------------------------------------------------------------------------|
E|-------------------------------------------------------------------------|
(Play twice but stop at the end of the 16,14)

1:09
e|-99999999-------1111111111111111-----------------------------------------|
B|-xxxxxxxx--------x-x-x-x-x-x-x-x-----------------------------------------|
G|-88888888--------8-8-8-8-8-8-8-8-----------------------------------------|
D|-------------------------------------------------------------------------|
A|-------------------------------------------------------------------------|
E|-------------------------------------------------------------------------|

CHORUS
1:13
e|-------------------------------------------------------------------------|
B|--------------------------------7--------7-7-9-9-11-11-9-9-12-12-11-11-11|
G|10h11h10----------11h13h13-8/10--10------8-8-8-8--8--8-8-8--8--8--8--8--8|
D|--------11h13h11---------------------X2!!--------------------------------|
A|-------------------------------------------------------------------------|
E|-------------------------------------------------------------------------|
(Play twice.)

1:33
e|-------------------------------------------------------------------------|
B|-------------------------------------------------------------------------|
G|-------------------------------------------------------------------------|
D|-9-9-9--9-9-9-9----11-11-11--11-11-11-11---------------------------------|
A|-9-9-9--9-9-9-9----11-11-11--11-11-11-11---------------------------------|
E|-9-9-9--9-9-9-9----11-11-11--11-11-11-11---------------------------------|







1:39 VERSE 2
e|-/14---------/14----------/14--------------------------------------------|
B|----18-14-------18-14h16-----18-14------/14h16 14h16---------------------|
G|---------15\----------------------15\------------------------------------|
D|-------------------------------------------------------------------------|
A|-------------------------------------------------------------------------|
E|-------------------------------------------------------------------------|
(Play this or play the next one after)


1:59 PRECHORUS
e|13---13---13----16---16---16----11---11---11----13---13---13-------------|
B|--14---14---14----14---14---14----14---14---14----14---14---14-----------|
G|----15---15---------15---15---------15---15---------15---15--------------|
D|-------------------------------------------------------------------------|
A|-------------------------------------------------------------------------|
E|-------------------------------------------------------------------------|
(stop the the 16/14.. again)

2:20
e|-99999999-------1111111111111111-----------------------------------------|
B|-xxxxxxxx--------x-x-x-x-x-x-x-x-----------------------------------------|
G|-88888888--------8-8-8-8-8-8-8-8-----------------------------------------|
D|-------------------------------------------------------------------------|
A|-------------------------------------------------------------------------|
E|-------------------------------------------------------------------------|

2:25 CHORUS
e|-------------------------------------------------------------------------|
B|--------------------------------7--------7-7-9-9-11-11-9-9-12-12-11-11-11|
G|10h11h10----------11h13h13-8/10---10-----8-8-8-8--8--8-8-8--8--8--8--8--8|
D|--------11h13h11---------------------X2!!--------------------------------|
A|-------------------------------------------------------------------------|
E|-------------------------------------------------------------------------|
(twice)

2:45 BREAKDOWN/BRIDGE
e|-------------------------------------------------------------------------|
B|-------------------------------------------------------------------------|
G|-------------------------------------------------------------------------|
D|-1-1-1--9-9-9--6-6-6----1-1-1--9-9-9--6-6-6------------------------------|
A|-1-1-1--9-9-9--6-6-6----1-1-1--9-9-9--6-6-6------------------------------|
E|-1-1-1--9-9-9--6-6-6----1-1-1--9-9-9--6-6-6------------------------------|

3:05 VERSE 3/INTERLUDE
e|-------------------------------------------------------------------------|
B|-/7--------/11--------\4--------/9~-------/9--------/11-------\7~--------|
G|-------------------------------------------------------------------------|
D|-------------------------------------------------------------------------|
A|-------------------------------------------------------------------------|
E|-------------------------------------------------------------------------|

3:18 PRECHORUS
e|13---13---13----16---16---16----11---11---11----13---13---13------------|
B|--14---14---14----14---14---14----14---14---14----14---14---14----------|
G|----15---15---------15---15---------15---15---------15---15-------------|
D|------------------------------------------------------------------------|
A|------------------------------------------------------------------------|
E|------------------------------------------------------------------------|
(play twice.)







3:37 CHORUS
e|-------------------------------------------------------------------------|
B|--------------------------------7--------7-7-9-9-11-11-9-9-12-12-11-11-11|
G|10h11h10----------11h13h13-8/10---10-----8-8-8-8--8--8-8-8--8--8--8--8--8|
D|--------11h13h11-----------------------X2!!------------------------------|
A|-------------------------------------------------------------------------|
E|-------------------------------------------------------------------------|





Guitar 2 (Jesse Lawson)
INTRO/CHORUS
e|-----------------------------------------------------------------------|
B|-------------------------------------3-3-3-----------------------------|
G|-------------------------------------5-5-5-----------------------------|
D|---2-2-2-2-2-2--5-5-5-5--0-0-0-0-0-0-------2xx2x22x2---7-7-7-7-5-5-5-5-|
A|---2-2-2-2-2-2--5-5-5-5--0-0-0-0-0-0-------2xx2x22x2---7-7-7-7-5-5-5-5-|
E|---2-2-2-2-2-2--5-5-5-5--0-0-0-0-0-0-------2xx2x22x2---7-7-7-7-5-5-5-5-|
Play Twice.


0:30 really, really unsure about this part.Jesse does use chords like this though. So 
play around i guess(time each strum with the note on lead)
e|-----------------------------------------|
B|-----------------------------------------|
G|--0~-----------------0~--------0~--------|
D|--5~---------9~------2~--------4~--------|
A|--7~---------10~-----3~--------5~--------|
E|--7~---------10~-----3~--------5~--------|x2

PRECHORUS
0:49
e|-------------------------------------------------------------------------|
B|-------------------------------------------------------------------------|
G|-------------------------------------------------------------------------|
D|-7-7-7-7-7-7-7-10-10-10-10-10-10-10-3-3-3-3-3-3-3--5-5-5-5-5-5-5---------|
A|-7-7-7-7-7-7-7-10-10-10-10-10-10-10-3-3-3-3-3-3-3--5-5-5-5-5-5-5---------|
E|-7-7-7-7-7-7-7-10-10-10-10-10-10-10-3-3-3-3-3-3-3--5-5-5-5-5-5-5---------|
(Play twice but stop at the end of 10)

1:05 pm----------------------------------------------------------------------|
e|---------------------------------------------------------------------------|
B|---------------------------------------------------------------------------|
G|---------------------------------------------------------------------------|
D|-10-10-10-10-10-10-10-3-3-3-3-3-3-3--5-5-5-5-5-5-5-7-7-7-7-7-x-------------|
A|-10-10-10-10-10-10-10-3-3-3-3-3-3-3—-5-5-5-5-5-5-5-7-7-7-7-7-x-------------|
E|-10-10-10-10-10-10-10-3-3-3-3-3-3-3--5-5-5-5-5-5-5-7-7-7-7-7-x-------------|

CHORUS
1:13
e|-----------------------------------------------------------------------|
B|-------------------------------------3-3-3-----------------------------|
G|-------------------------------------5-5-5-----------------------------|
D|---2-2-2-2-2-2--5-5-5-5--0-0-0-0-0-0-------2xx2x22x2---7-7-7-7-5-5-5-5-|
A|---2-2-2-2-2-2--5-5-5-5--0-0-0-0-0-0-------2xx2x22x2---7-7-7-7-5-5-5-5-|
E|---2-2-2-2-2-2--5-5-5-5--0-0-0-0-0-0-------2xx2x22x2---7-7-7-7-5-5-5-5-|
Play Twice.







1:33
e|-------------------------------------------------------------------------|
B|-------------------------------------------------------------------------|
G|-------------------------------------------------------------------------|
D|-9-9-9--9-9-9-9----11-11-11--11-11-11-11---------------------------------|
A|-9-9-9--9-9-9-9----11-11-11--11-11-11-11---------------------------------|
E|-9-9-9--9-9-9-9----11-11-11--11-11-11-11---------------------------------|

1:39 VERSE 2
e|-------------------------------------------------------------------------|
B|-------------------------------------------------------------------------|
G|-------------------------------------------------------------------------|
D|-9-9-9-9--9-9-9-9---5-5-5-5---5-5-5-5--9-9-9-9--9-9-9-9--5-5-5-5--5-5-5-5|
A|-9-9-9-9--9-9-9-9---5-5-5-5---5-5-5-5--9-9-9-9--9-9-9-9--5-5-5-5--5-5-5-5|
E|-9-9-9-9--9-9-9-9---5-5-5-5---5-5-5-5--9-9-9-9--9-9-9-9--5-5-5-5--5-5-5-5|

 (Play this or play the next one after)

1:49
e|-------------------------------------------------------------------------|
B|-------------------------------------------------------------------------|
G|--1515151515151515-1313131313131313-1111111111111111-1010101010101010----|
D|---x-x-x-x-x-x-x-x--x-x-x-x-x-x-x-x--x-x-x-x-x-x-x-x--x-x-x-x-x-x-x-x----|
A|--1313131313131313-1111111111111111--9-9-9-9-9-9-9-9--8-8-8-8-8-8-8-8----|
E|-------------------------------------------------------------------------|

1:59 PRECHORUS
e|-------------------------------------------------------------------------|
B|-------------------------------------------------------------------------|
G|-------------------------------------------------------------------------|
D|-7-7-7-7-7-7-7-10-10-10-10-10-10-10-3-3-3-3-3-3-3--5-5-5-5-5-5-5---------|
A|-7-7-7-7-7-7-7-10-10-10-10-10-10-10-3-3-3-3-3-3-3--5-5-5-5-5-5-5---------|
E|-7-7-7-7-7-7-7-10-10-10-10-10-10-10-3-3-3-3-3-3-3--5-5-5-5-5-5-5---------|

 (stop at the 10.. again)

2:15
pm---------------------------------------------------------------------------|
e|---------------------------------------------------------------------------|
B|---------------------------------------------------------------------------|
G|---------------------------------------------------------------------------|
D|-10-10-10-10-10-10-10-3-3-3-3-3-3-3--5-5-5-5-5-5-5-7-7-7-7-7-x-------------|
A|-10-10-10-10-10-10-10-3-3-3-3-3-3-3—-5-5-5-5-5-5-5-7-7-7-7-7-x-------------|
E|-10-10-10-10-10-10-10-3-3-3-3-3-3-3--5-5-5-5-5-5-5-7-7-7-7-7-x-------------|

2:25 CHORUS
e|-----------------------------------------------------------------------|
B|-------------------------------------3-3-3-----------------------------|
G|-------------------------------------5-5-5-----------------------------|
D|---2-2-2-2-2-2--5-5-5-5--0-0-0-0-0-0-------2xx2x22x2---7-7-7-7-5-5-5-5-|
A|---2-2-2-2-2-2--5-5-5-5--0-0-0-0-0-0-------2xx2x22x2---7-7-7-7-5-5-5-5-|
E|---2-2-2-2-2-2--5-5-5-5--0-0-0-0-0-0-------2xx2x22x2---7-7-7-7-5-5-5-5-|
Play Twice again.

2:45 BREAKDOWN/BRIDGE
e|-------------------------------------------------------------------------|
B|-------------------------------------------------------------------------|
G|-------------------------------------------------------------------------|
D|-1-1-1--9-9-9--6-6-6----1-1-1--9-9-9--6-6-6------------------------------|
A|-1-1-1--9-9-9--6-6-6----1-1-1--9-9-9--6-6-6------------------------------|
E|-1-1-1--9-9-9--6-6-6----1-1-1--9-9-9--6-6-6------------------------------|







3:05 VERSE 3/INTERLUDE( Like i said, little unsure about the chords)
e|-----------------------------------------|
B|-----------------------------------------|
G|--0~-----------------0~--------0~--------|
D|--5~---------9~------2~--------4~--------|
A|--7~---------10~-----3~--------5~--------|
E|--7~---------10~-----3~--------5~--------|


3:18 PRECHORUS
e|-------------------------------------------------------------------------|
B|-------------------------------------------------------------------------|
G|-------------------------------------------------------------------------|
D|-7-7-7-7-7-7-7-10-10-10-10-10-10-10-3-3-3-3-3-3-3--5-5-5-5-5-5-5---------|
A|-7-7-7-7-7-7-7-10-10-10-10-10-10-10-3-3-3-3-3-3-3--5-5-5-5-5-5-5---------|
E|-7-7-7-7-7-7-7-10-10-10-10-10-10-10-3-3-3-3-3-3-3--5-5-5-5-5-5-5---------|
 (play twice.)


3:37 CHORUS
e|-----------------------------------------------------------------------|
B|-------------------------------------3-3-3-----------------------------|
G|-------------------------------------5-5-5-----------------------------|
D|---2-2-2-2-2-2--5-5-5-5--0-0-0-0-0-0-------2xx2x22x2---7-7-7-7-5-5-5-5-|
A|---2-2-2-2-2-2--5-5-5-5--0-0-0-0-0-0-------2xx2x22x2---7-7-7-7-5-5-5-5-|
E|---2-2-2-2-2-2--5-5-5-5--0-0-0-0-0-0-------2xx2x22x2---7-7-7-7-5-5-5-5-| till end

Like i said, thanks again to Krysta, she did all the hardwork towards this tab, figuring 
out most of the lead  if theres any suggestions, get in touch with one of us 
************************************

| /   slide up
| \   slide down
| h   hammer-on
| p   pull-off
| ~   vibrato
| +   harmonic
| x   Mute note
| b   Bend
| pb  Pre-bend
| br  Bend release
| pbr Pre-bend release
| brb Bend release bend

************************************
            
Submit corrections

comments powered by Disqus
↑ Back to top | Sleeping With Sirens Tabs for If You Cant Hang. Lyrics for acoustic guitar and electric guitar. Tablatures and chords are parodies/interpretations of the original songs. You may use it for private study, scholarship, research or language learning purposes only