» » »

Sleeping With Sirens, If You Cant Hang Tabs (ver.2)

Artists:  A B C D E F G H I J K L M N O P Q R S T U V W X Y Z # 

If You Cant Hang Tabs (ver.2)

Sleeping With Sirens Tabs
 Rating:
4/5 (4 votes)
If You Cant Hang lessons Tabs too difficult? Try these video lessons and learn fast
                                              If You Can't Hang - Sleeping With Sirens
------------------------------------------------------------------------------


So I actually found out that the song is tuned down to drop C apparently? Well 
this is in C# so play a half step down or stick to this tuning if you'd like.

Have fun!

Tuning:Drop C# (C# G# C# F# A# D#)

Lead part (I believe.. .__.)

INTRO/CHORUS
e|---------------------------------------------------------------------------|
B|----------------------------------------7-7-9-9-11-11-9-9-12-12-11-11-11---|
G|10h11h10----------11h13h13-8/10---------8-8-8-8--8--8-8-8--8--8--8--8--8---|
D|--------11h13h11-----------------X2!!--------------------------------------|
A|---------------------------------------------------------------------------|
E|---------------------------------------------------------------------------|
Play Twice.


0:30
e|---------------------------------------------------------------------------|
B|-/7--------/11--------\4--------/9~-------/b7--------/11--------\4------/b9|
G|---------------------------------------------------------------------------|
D|---------------------------------------------------------------------------|
A|---------------------------------------------------------------------------|
E|---------------------------------------------------------------------------|

PRECHORUS
0:49
e|14---14---14----17---17---17----12---12---12----14---14---14---------------|
B|--14---14---14----14---14---14----14---14---14----14---14---14-------------|
G|----15---15---------15---15---------15---15---------15---15----------------|
D|---------------------------------------------------------------------------|
A|---------------------------------------------------------------------------|
E|---------------------------------------------------------------------------|
(Play twice but stop at the end of the 16,14)

1:09
e|-99999999-------1111111111111111-------------------------------------------|
B|-xxxxxxxx--------x-x-x-x-x-x-x-x-------------------------------------------|
G|-88888888--------8-8-8-8-8-8-8-8-------------------------------------------|
D|---------------------------------------------------------------------------|
A|---------------------------------------------------------------------------|
E|---------------------------------------------------------------------------|

CHORUS
1:13
e|---------------------------------------------------------------------------|
B|----------------------------------------7-7-9-9-11-11-9-9-12-12-11-11-11---|
G|10h11h10----------11h13h13-8/10---------8-8-8-8--8--8-8-8--8--8--8--8--8---|
D|--------11h13h11-----------------X2!!--------------------------------------|
A|---------------------------------------------------------------------------|
E|---------------------------------------------------------------------------|
(Play twice.)

1:33
e|---------------------------------------------------------------------------|
B|---------------------------------------------------------------------------|
G|---------------------------------------------------------------------------|
D|-9-9-9--9-9-9-9----11-11-11--11-11-11-11-----------------------------------|
A|-9-9-9--9-9-9-9----11-11-11--11-11-11-11-----------------------------------|
E|-9-9-9--9-9-9-9----11-11-11--11-11-11-11-----------------------------------|

1:39
e|-/15---------/15----------/15----------------------------------------------|
B|----18-14-------18-14h16-----18-14------/14h16 14h16-----------------------|
G|---------15\----------------------15\--------------------------------------|
D|---------------------------------------------------------------------------|
A|---------------------------------------------------------------------------|
E|---------------------------------------------------------------------------|
(Play this or play the next one after)

1:49
e|---------------------------------------------------------------------------|
B|---------------------------------------------------------------------------|
G|--1515151515151515-1313131313131313-1111111111111111-1010101010101010------|
D|---x-x-x-x-x-x-x-x--x-x-x-x-x-x-x-x--x-x-x-x-x-x-x-x--x-x-x-x-x-x-x-x------|
A|--1313131313131313-1111111111111111--9-9-9-9-9-9-9-9--8-8-8-8-8-8-8-8------|
E|---------------------------------------------------------------------------|

1:59
e|13---13---13----16---16---16----11---11---11----13---13---13---------------|
B|--14---14---14----14---14---14----14---14---14----14---14---14-------------|
G|----15---15---------15---15---------15---15---------15---15----------------|
D|---------------------------------------------------------------------------|
A|---------------------------------------------------------------------------|
E|---------------------------------------------------------------------------|
(stop the the 16/14.. again)

2:20
e|-99999999-------1111111111111111-------------------------------------------|
B|-xxxxxxxx--------x-x-x-x-x-x-x-x-------------------------------------------|
G|-88888888--------8-8-8-8-8-8-8-8-------------------------------------------|
D|---------------------------------------------------------------------------|
A|---------------------------------------------------------------------------|
E|---------------------------------------------------------------------------|

2:25
e|---------------------------------------------------------------------------|
B|----------------------------------------7-7-9-9-11-11-9-9-12-12-11-11-11---|
G|10h11h10----------11h13h13-8/10---------8-8-8-8--8--8-8-8--8--8--8--8--8---|
D|--------11h13h11-----------------X2!!--------------------------------------|
A|---------------------------------------------------------------------------|
E|---------------------------------------------------------------------------|
(twice)

2:45
e|---------------------------------------------------------------------------|
B|---------------------------------------------------------------------------|
G|---------------------------------------------------------------------------|
D|-1-1-1--9-9-9--6-6-6----1-1-1--9-9-9--6-6-6--------------------------------|
A|-1-1-1--9-9-9--6-6-6----1-1-1--9-9-9--6-6-6--------------------------------|
E|-1-1-1--9-9-9--6-6-6----1-1-1--9-9-9--6-6-6--------------------------------|

3:05
e|---------------------------------------------------------------------------|
B|-/7--------/11--------\4--------/9~-------/9--------/11-------\7~----------|
G|---------------------------------------------------------------------------|
D|---------------------------------------------------------------------------|
A|---------------------------------------------------------------------------|
E|---------------------------------------------------------------------------|

3:18
e|13---13---13----16---16---16----11---11---11----13---13---13---------------|
B|--14---14---14----14---14---14----14---14---14----14---14---14-------------|
G|----15---15---------15---15---------15---15---------15---15----------------|
D|---------------------------------------------------------------------------|
A|---------------------------------------------------------------------------|
E|---------------------------------------------------------------------------|
(play twice.)

3:37
e|---------------------------------------------------------------------------|
B|----------------------------------------7-7-9-9-11-11-9-9-12-12-11-11-11---|
G|10h11h10----------11h13h13-8/10---------8-8-8-8--8--8-8-8--8--8--8--8--8---|
D|--------11h13h11-----------------X2!!--------------------------------------|
A|---------------------------------------------------------------------------|
E|---------------------------------------------------------------------------|
(i am way too lazy to check how many times this is repeated, but continue on.)





************************************

| /   slide up
| \   slide down
| h   hammer-on
| p   pull-off
| ~   vibrato
| +   harmonic
| x   Mute note
| b   Bend
| pb  Pre-bend
| br  Bend release
| pbr Pre-bend release
| brb Bend release bend

************************************
            
Submit corrections

comments powered by Disqus
↑ Back to top | Sleeping With Sirens Tabs for If You Cant Hang. Lyrics for acoustic guitar and electric guitar. Tablatures and chords are parodies/interpretations of the original songs. You may use it for private study, scholarship, research or language learning purposes only