» » »

Sleeping With Sirens, Fire Tabs (ver.1)

Artists:  A B C D E F G H I J K L M N O P Q R S T U V W X Y Z # 

Fire Tabs (ver.1)

Sleeping With Sirens Tabs
 Rating:
4.3/5 (6 votes)
Fire lessons Tabs too difficult? Try these video lessons and learn fast
                -------------------------------------------------------------------------------
-------------------------------------------------------------------------------


Tuning: Drop D

Intro:
e|------------------------------------------------------------------------------------------|
B|------------------------------------------------------------------------------------------|
G|------9---4-7---5-7---2-5h7p5-------------------------------------------------------------|
D|-7-10---5-----4-----3---------7---7------5------0------3------7------5------0------3------|
A|----------------------------------7(x12)-5(x12)-0(x12)-3(x12)-7(x12)-5(x12)-0(x12)-3(x12)-|
D|----------------------------------7------5------0------3------7------5------0------3------|



Verse:
e|----------------------------------|
B|----------------------------------|
G|------9---4-7---5-7---2-5h7p5-----|
D|-7-10---5-----4-----3---------7---|
A|----------------------------------|
D|----------------------------------| x2

e|---------------------------/8-8-10-8-5-|
B|---------------------------------------|
G|-/10\9\5\2--------/10\9\5\2------------|
D|----------5\3\2-0----------------------|
A|---------------------------------------|
D|---------------------------------------|

Chorus:
e|-----------------------------|
B|-----------------------------|
G|-----------------------------|
D|-7------5------0------3------|
A|-7(x12)-5(x12)-0(x12)-3(x12)-|
D|-7------5------0------3------| x2

Verse:
e|----------------------------------|
B|----------------------------------|
G|------9---4-7---5-7---2-5h7p5-----|
D|-7-10---5-----4-----3---------7---|
A|----------------------------------|
D|----------------------------------| x3

e|---------------------------/8-8-10-8-5-|
B|---------------------------------------|
G|-/10\9\5\2--------/10\9\5\2------------|
D|----------5\3\2-0----------------------|
A|---------------------------------------|
D|---------------------------------------|

Chorus:
e|-----------------------------|
B|-----------------------------|
G|-----------------------------|
D|-7------5------0------3------|
A|-7(x12)-5(x12)-0(x12)-3(x12)-|
D|-7------5------0------3------| x2

                        (Tremolo Picking)(Let this note ring)
e|--------------------------10-------12-------|
B|----------------------------------------13~-|
G|----------------------------------------16~-|
D|-7777-7777-5555-5555-0000-------------------|
A|-7777-7777-5555-5555-0000-------------------|
D|-7777-7777-5555-5555-0000-------------------|

Bridge:
e|-------------------------------------------------------------------------|
B|-13h15-11h14------------------------13h15-11h14-----------------13-15-12-|
G|-------------12h14-10h12-14-9-12-9--------------12h14-10h12-/14----------|
D|-------------------------------------------------------------------------|
A|-------------------------------------------------------------------------|
D|-------------------------------------------------------------------------|

e|----------------------------------------------------------------------------|
B|-13h15-11h14------------------------13h15-11h14-----------------13-15-12-13-|
G|-------------12h14-10h12-14-9-12-9--------------12h14-10h12-/14-------------|
D|----------------------------------------------------------------------------|
A|----------------------------------------------------------------------------|
D|----------------------------------------------------------------------------|


Chorus:
e|-----------------------------|
B|-----------------------------|
G|-----------------------------|
D|--------5------0------3------|
A|--------5(x12)-0(x12)-3(x12)-|
D|--------5------0------3------| 

e|-----------------------------|
B|-----------------------------|
G|-----------------------------|
D|-7------5------0------3------|
A|-7(x12)-5(x12)-0(x12)-3(x12)-|
D|-7------5------0------3------| 


e|-----------------------------------------|
B|-----------------------------------------|
G|-----------------------------------------|
D|-7777-7777-5555-5555-0000-0000-3333-3333-|
A|-7777-7777-5555-5555-0000-0000-3333-3333-|
D|-7777-7777-5555-5555-0000-0000-3333-3333-|


                        (Tremolo Picking)(Let this note ring)
e|--------------------------10-------12-------|
B|----------------------------------------13~-|
G|----------------------------------------16~-|
D|-7777-7777-5555-5555-0000-------------------|
A|-7777-7777-5555-5555-0000-------------------|
D|-7777-7777-5555-5555-0000-------------------|

***********************************

| /   slide up
| \   slide down
| h   hammer-on
| p   pull-off
| ~   vibrato
| +   harmonic
| x   Mute note
| b   Bend
| pb  Pre-bend
| br  Bend release
| pbr Pre-bend release
| brb Bend release bend

**********************************
            
Submit corrections

comments powered by Disqus
↑ Back to top | Sleeping With Sirens Tabs for Fire. Lyrics for acoustic guitar and electric guitar. Tablatures and chords are parodies/interpretations of the original songs. You may use it for private study, scholarship, research or language learning purposes only