» » »

When A Man Loves A Woman Bass tabs (ver.1)

Artists:  A B C D E F G H I J K L M N O P Q R S T U V W X Y Z # 

When A Man Loves A Woman Bass tabs (ver.1)

Sledge Percy
Rating:
0/5 (0 votes)
Tabs too difficult? Try these video lessons and learn fast.
                percy sledge_when a man loves a woman

TablEdited by Jan Bjorklund   
You are welcome to request for tabs!
Fingering and positions as suggested by TablEdit, please use common sense.


TablEdited by Jan Bjorklund
Tuning : E A D G 	Time Signature: 4/4

 |               |               |               |                
|----------------------------------------------------------------|
|----------------------------------------0-----------------------|
|----------------------------------------------------------------|
|----------------------------------------------------------------|

 |               |               |               |                
|----------------------------------------------------------------|
|--0-------------------------------------------------------------|
|------------------------------4-------------------------4-------|
|----------------------------------------------------------------|

 |               |               |               |                
|----------------------------------------------------------------|
|----------------------------------------------------------------|
|------------------2-------------------------2-------------------|
|----------------------------------------------------------------|

 |               |               |               |                
|----------------------------------------------------------------|
|----------------------------------------------------------------|
|------0-------------------------0-------------------------------|
|----------------------------------------------------------3-----|

 |               |               |               |                
|----------------------------------------------------------------|
|----------------------------------------------------------------|
|----------------------0-------------------------2---------------|
|----------------------------------------------------------------|

 |               |               |               |                
|----------------------------------------------------------------|
|----------2-------------------------0-------------------------0-|
|----------------------------------------------------------------|
|----------------------------------------------------------------|

 |               |               |               |                
|----------------------------------------------------------------|
|----------------------------------------------------------------|
|--------4-------2-------0-------------------------0---------2---|
|----------------------------------------------------------------|

 |               |               |               |                
|----------------------------------------------------------------|
|------------0---------------------------0-----------------------|
|----4-----------------------------------------------------------|
|----------------------------------------------------------------|

 |               |               |               |                
|----------------------------------------------------------------|
|----------------------------------------------------------------|
|--4-------------------------4-------------------------2---------|
|----------------------------------------------------------------|

 |               |               |               |                
|----------------------------------------------------------------|
|----------------------------------------------------------------|
|----------------2---------------------------0-------------------|
|----------------------------------------------------------------|

 |               |               |               |                
|----------------------------------------------------------------|
|----------------------------------------------------------------|
|------0---------------------------------------------------0-----|
|--------------------------------3-------------------------------|

 |               |               |               |                
|----------------------------------------------------------------|
|----------------------------------------------2-----------------|
|--------------------2-------------------------------------------|
|----------------------------------------------------------------|

 |               |               |               |                
|----------------------------------------------------------------|
|--------0-------------------------0-----------------------------|
|----------------------------------------------------2---------0-|
|----------------------------------------------------------------|

 |               |               |               |                
|----------------------------------------------------------------|
|--------------------------------------------------0-------------|
|------------------------0-------2-------4-----------------------|
|----------------------------------------------------------------|

 |               |               |               |                
|----------------------------------------------------------------|
|------------0---------------------------------------------------|
|--------------------------------------4-------------------------|
|----------------------------------------------------------------|

 |               |               |               |                
|----------------------------------------------------------------|
|----------------------------------------------------------------|
|4-------------------------2---------------------------2---------|
|----------------------------------------------------------------|

 |               |               |               |                
|----------------------------------------------------------------|
|----------------------------------------------------------------|
|----------------0-------------------------0---------------------|
|------------------------------------------------------------4---|

 |               |               |               |                
|----------------------------------------------------------------|
|----------------------------------------------------------------|
|--------------------------------------------------------0-------|
|----3-------------------------3---------------------------------|

 |               |               |               |                
|----------------------------------------------------------------|
|----------------------------------------------0-----------------|
|------------------2---------------------------------------------|
|----------------------------------------------------------------|

 |               |               |               |                
|----------------------------------------------------------------|
|--------0-------------------------------------------------------|
|----------------------------------0-------------------------2---|
|----------------------------------------------------------------|

 |               |               |               |                
|----------------------------------------------------------------|
|----------------------0-------------------------0---------------|
|--------------4-------------------------------------------------|
|----------------------------------------------------------------|

 |               |               |               |                
|----------------------------------------------------------------|
|----------------------------------------------------------------|
|----------4---------------------------4-------------------------|
|----------------------------------------------------------------|

 |               |               |               |                
|----------------------------------------------------------------|
|----------------------------------------------------------------|
|2-------------------------2-------------------------0-----------|
|----------------------------------------------------------------|

 |               |               |               |                
|----------------------------------------------------------------|
|----------------------------------------------------------------|
|--------------0-------------------------------------------------|
|----------------------------------------3-----------------------|

 |               |               |               |                
|----------------------------------------------------------------|
|--------------------------------------------------------2-------|
|----0-------------------------2---------------------------------|
|----------------------------------------------------------------|

 |               |               |               |                
|----------------------------------------------------------------|
|------------------0-------------------------0-------------------|
|----------------------------------------------------------------|
|----------------------------------------------------------------|

 |               |               |               |                
|----------------------------------------------------------------|
|----------------------------------------------------------0-----|
|------0-------------------------0---------2-------4-------------|
|----------------------------------------------------------------|

 |               |               |               |                
|----------------------------------------------------------------|
|----------------------0-----------------------------------------|
|------------------------------------------------4---------------|
|----------------------------------------------------------------|

 |               |               |               |                
|----------------------------------------------------------------|
|----------------------------------------------------------------|
|----------4-------------------------2-------------------------2-|
|----------------------------------------------------------------|

 |               |               |               |                
|----------------------------------------------------------------|
|----------------------------------------------------------------|
|------------------------0-------------------------0-------------|
|----------------------------------------------------------------|

 |               |               |               |                
|----------------------------------------------------------------|
|----------------------------------------------------------------|
|----------------------------------------------------------------|
|--------------3-------------------------3-----------------------|

 |               |               |               |                
|----------------------------------------------------------------|
|------------------------------------------------------0---------|
|--0-------------------------2-----------------------------------|
|----------------------------------------------------------------|

 |               |               |               |                
|----------------------------------------------------------------|
|----------------0-----------------------------------------------|
|--------------------------------------------0-------------------|
|----------------------------------------------------------------|

 |               |               |               |                
|----------------------------------------------------------------|
|------0---------------------------------------------------------|
|--------------2-------0-----------------------------------2-----|
|--------------------------------3-------------------------------|

 |               |               |               |                
|----------------------------------------------------------------|
|--------------------0-------------------------------------------|
|----------------------------------------------2-----------------|
|----------------------------------------------------------------|

 |               |               |               |                
|--------------------------------------------------------------16|
|----------0-------------------------4---------------------------|
|----------------------------------------------------------------|
|----------------------------------------------------------------|

 |               |               |               |                
|------------------------7-------4-------------------------------|
|------------------------------------------7-------5-------------|
|----------------------------------------------------------------|
|----------------------------------------------------------------|

 |               |               |               |                
|------------4-------------------------7-------------------------|
|----------------------------------------------------------------|
|----------------------------------------------------------------|
|----------------------------------------------------------------|

 |               |               |               |                
|--4-------------------------------------------------------------|
|------------------------------------------------------4---------|
|----------------------------5-----------------------------------|
|----------------------------------------------------------------|

 |               |               |               |                
|----------------2-----------------------------------2-----------|
|------------------------------------------4-----------------4---|
|----------------------------------------------------------------|
|----------------------------------------------------------------|

 |               |               |               |                
|----0-----------------------------------------------------------|
|----------------------------------------------------------------|
|----------------------------------------------------------------|
|----------------------------------------------------------------|
            
Tabs too difficult? Try these video lessons and learn fast.


comments powered by Disqus
↑ Back to top | Tablatures and chords are parodies/interpretations of the original songs. You may use it for private study, scholarship, research or language learning purposes only