» » »

Sick Boy Tabs (ver.1)

Artists:  A B C D E F G H I J K L M N O P Q R S T U V W X Y Z # 

Sick Boy Tabs (ver.1)

Slayer
Rating:
0/5 (0 votes)

Hard to play? Try these video lessons and learn fast.
                







TUNE DOWN 2 STEP

solo
|--------|
|--------|
|-9~~~~--|
|--------|
|--------|
|--------|


|------------------------------------------------------------------------|
|------------------------------------------------------------------------|
|------------------------------------------------------------2-4bp2------|
|-0h2p0h4p0-5p0-4p0--0h2p0-4p0-2p0--0h2p0h4p0-5p0-4p0-0h2h4---------2~~~-|
|------------------------------------------------------------------------|
|------------------------------------------------------------------------|
                                         slide down  
|------------------------------------------------|
|------------------------------------------------|
|---2-4bp2----4bp2--------7-9p7-----9~~~---------|
|-4--------4-------4--3/9-------9--------9/------|
|------------------------------------------------|
|------------------------------------------------|

|----------------------------------------------------------------------------------|
|-11b-11b-11bp9-----------------------------------11b-11b-11bp9--------------------|
|---------------9~~~-11b-11b-11b-11b-11b-11b-11b----------------9~~~-(9)--9AH--~~~-|
|----------------------------------------------------------------------------------|
|----------------------------------------------------------------------------------|
|----------------------------------------------------------------------------------|
            
Hard to play? Try these video lessons and learn fast. | Correct




comments powered by Disqus
↑ Back to top | Tablatures and chords are parodies/interpretations of the original songs. You may use it for private study, scholarship, research or language learning purposes only