» » »

Show No Mercy Tabs (ver.2)

Artists:  A B C D E F G H I J K L M N O P Q R S T U V W X Y Z # 

Show No Mercy Tabs (ver.2)

Slayer
Rating:
0/5 (0 votes)

Hard to play? Try these video lessons and learn fast.
                slayer


                                                     play 3 times
e:-------------------------20b-----17-----17-----17-*----------------|
B:-20b-20b-20b-20b-20b-20b-----20b----20b----20b----*-20p17-20p17----|
G:--------------------------------------------------*-------------19-|
D:--------------------------------------------------*----------------|
A:--------------------------------------------------*----------------|
E:--------------------------------------------------*----------------|




e:---------------------------------------------------------------------|
B:20b-17h20p17-16h19p16-15h18p15-14h17p14-13h16p13-12h15p12------------|
G:----------------------------------------------------------14-12-14-12|
D:---------------------------------------------------------------------|
A:---------------------------------------------------------------------|
E:---------------------------------------------------------------------|
       N.H.
e:---------------------------------------------------------------------|
B:---------------------------------------------------------------------|
G:-----9~~~------7------------------------------------------12-14-12-14|
D:14b--------9-8---9-8--------------------------12-14-12-14------------|
A:----------------------------------12-14-12-14------------------------|
E:----------------------12-15-12-15------------------------------------|


e:---------------------------------------------------------------------|
B:------------------------12-13-12-13-12-13-13-13b-13b-----------------|
G:------------12-14-12-14----------------------------------------------|
D:12-14-12-14----------------------------------------------------------|
A:------------------------------------------------------------------14-|
E:------------------------------------------------------14-17-14-17----|


                                                             6 times
e:--------------------------------------------------------*---14-17-14*---|
B:---------------------------------14-15-14-15-14-15-14-15*17---------*17b|
G:---------------------14-16-14-16------------------------*-----------*---|
D:---------14-16-14-16------------------------------------*-----------*---|
A:16-14-16------------------------------------------------*-----------*---|
E:--------------------------------------------------------*-----------*---|
            
Hard to play? Try these video lessons and learn fast. | Correct




comments powered by Disqus
↑ Back to top | Tablatures and chords are parodies/interpretations of the original songs. You may use it for private study, scholarship, research or language learning purposes only