>
 >
Serenity In Murder 1

Serenity In Murder 1 Bass Tabs

Slayer - Serenity In Murder 1 chords, tabs, tablatures, lyrics

Guitar lessons | Add/correct | Request | Top 50 tabs Artists:  A B C D E F G H I J K L M N O P Q R S T U V W X Y Z 0-9

Serenity In Murder 1 Bass Tabs – Slayer

CD, Sheet music, Poster

Do you like Serenity In Murder 1? Share with your friends now
Bass Tabs
Slayer - Serenity in Murder

Tune down 1/2 step low to high Eb, Ab, Db, Gb


|------------|-----------|----------|-----------|----------------------|
|------------|-----------|----------|-----------|----------------------|
|------------|-----------|----------|-----------|----------------------|
|-----8------|--------6--|--8-------|-----------|---------3------------|
                                                                        
                                                                        
||---------------------------------------|------------------------------
||o--------------------------------------|------------------------------
||o--------------------------------------|-------------------------3--2-
||---2--0--2---3--2--0--2--0--5--3--2--0-|-2--0--2--3--2--0--2--0-------
                                                                        
                                              1.                        
-------|-------------------------------------|-------------------------|
-------|-------------------------------------|-------------------------|
--1--0-|-------------------------------------|-------------------------|
-------|-2--0--2--3--2--0--2--0--5--3--2--0--|--2--0--2--3--2--0--2--0-|
                                                                        
                       2.                                               
|-------------------||---------------------|---------------------------|
|------------------o||---------------------|---------------------------|
|-------2----------o||---------------------|---------------------------|
|-3--4-----5--4--3--||-2--0--2--3--2--0----|-------3-------------------|
                                                                        
                                                                        
|-------------------------------|--------------------------------------|
|--------------------3----------|-------------------2------------------|
|--------3-----3--4-----4--3----|-------2-----2--3-----3--2------------|
|--4--5-----5-----------------4-|-3--4-----4-----------------3---------|
                                                                        
                                                                        
|-------------------------------|--------------------------------------|
|-------------------1-----------|--------------------0-----------------|
|-------1-----1--2-----2--1-----|--------0-----0--1-----1--0-----------|
|-2--3-----3-----------------2--|--1--2-----2-----------------1--------|
                                                                        
                                                                        
|--------------------|---------------|-------------|-------------------|
|--------------------|---------------|-------------|-------------------|
|--------------------|---------------|-------------|-------------------|
|--------0-----------|--0--------1---|-------0-----|-------------------|
                                                                        
                                                                        
1st verse
                                             1.2.3.
||-----------------------------------------|----------------------------
||o----------------------------------------|----------------------------
||o----------------------------------------|----------------------------
||---0--0--0--0--0--0--0--0--0--0--0--0--0-|--0--0--0--0--0--0--0--0--0-
                                                                        
                  4.                                                    
---------------||--------------------------------------------|
--------------o||--------------------------------------------|
--------------o||-----------------------------------1--------|
--0--0--0--1---||--0--0--0--0--0--0--0--0--0--0--0-----2--0--|


Chorus
|-------------------------------------------------|---------------------
|-------------------------------------------------|---------------------
|-------------------------------------------------|---------------------
|--2--3--0--0--2--3--0--0--5--3--0--5--4--2--4--0-|-2--3--0--0--2--3--0-
                                                                        
                                                                        
----------------------------|-------------------------------------------
----------------------------|-------------------------------------------
--------------------1-------|-------------------------------------------
--5--4--2--0--5--3-----3--2-|-2--3--0--0--2--3--0--0--5--3--0--5--4--2--
                                                                        
                                                                        
--------|---------------------------------------------------|
--------|---------------------------------------------------|
--------|-------------------------------------1-------------|
--4--0--|-2--3--0--0--2--3--0--5--4--2--0--3-----3--2--1----|
                                                                        
   Guitar Solo I                                   
||--------------------------------------------------|-------------------
||o-------------------------------------------------|-------------------
||o-------------------------------------------------|-------------------
||---0--0--0--0--4--3--0--0--3--2--0--0--0--0--0--0-|-0--0--0--0--4--3--
                                                                        
                                                                        
-----------------------------|------------------------------------------
-----------------------------|------------------------------------------
-----------------------------|------------------------------------------
--0--0--3--2--0--0--0--0--1--|-0--0--0--0--4--3--0--0--3--2--0--0--0--0-
                                                                        
             1.                                                         
-----------|---------------------------------------------------||
-----------|--------------------------------------------------o||
-----------|--------------------------------------1-----------o||
--0--0--0--|--0--0--0--0--4--3--0--0--3--2--0--3-----3--2--1---||
                                                                        
2.                                                                      
|------------------------|
|------------------------|
|------------------------|
|--0-------0-------1-----|
                                                                        

2nd verse                                 1.2.3                         
||--------------------------------------|--------------------------------||
||o-------------------------------------|-------------------------------o||
||o-------------------------------------|-------------------------------o||
||---0--0--0--0--0--0--0--0--0--0--0--0-|-0--0--0--0--0--0--0--0--0--0-1-||
                                                                        
  4.                                                                    
|------------------------------------------|
|------------------------------------------|
|----------------------------------1-------|
|-0--0--0--0--0--0--0--0--0--0--0-----2--0-|



Chorus
|------------------------------------------------|----------------------
|------------------------------------------------|----------------------
|-2-----------1----------------------------------|-2-----------1--------
|----4--3--0-----3--2--0--5--3--2--0--5--3--2--0-|----4--3--0-----3--2--
                                                                        
                                                                        
----------------------------|----------|--------------------------------
----------------------------|----------|--------------------------------
----------------------------|-----%----|--2-----------1-----------------
--0--5--3--2--0--5--3--2--0-|----------|-----4--3--0-----3--2--0--5--3--
                                                                        
                     Guitar Solo II                                     
-------------------|-------------------|-------------------------------|
-------------------|-------------------|-------------------------------|
-------------------|-------------------|-------------------------------|
--2--0--5--3--2--0-|----------0--------|-------------------------------|
                                                                        
                                                                        
||--------------------------------------------------|-------------------
||o-------------------------------------------------|-------------------
||o-------------------------------------------------|-------------------
||---0--0--0--0--0--0--0--0--3--3--3--3--3--3--3--3-|-0--0--6--6--6--6--
                                                                        
         play 6x                                                        
-------------------------------||
------------------------------o||
------------------------------o||
--6--6--6--6--6--6--6--6--6--6-||
                                                                        
Chorus                                                                  
|------------------------------------------------|----------------------
|------------------------------------------------|----------------------
|-2-----------1----------------------------------|-2-----------1--------
|----4--3--0-----3--2--0--5--3--2--0--5--3--2--0-|----4--3--0-----3--2--
                                                                        
                                                                        
---------------------------|--------------------------------------------
---------------------------|--------------------------------------------
---------------------------|-2-----------1------------------------------
-0--5--3--2--0--5--3--2--0-|----4--3--0-----3--2--0--5--3--2--0--5--3---
                                                                        
                                                                        
--------|--------------|------------|
--------|--------------|------------|
--------|------%-------|-----%------|
--2--0--|--------------|------------|
                                                                        
                                                                        
||--------------------------------------|-------------------------------
||o-------------------------------------|-------------------------------
||o-------------------------------------|-------------------------3--2--
||---2--0--2--3--2--0--2--0--5--3--2--0-|-2--0--2--3--2--0--2--0--------


                                                 1.
-------|--------------------------------------|-------------------------|
-------|--------------------------------------|-------------------------|
--1--0-|--------------------------------------|-------------------------|
-------|--2--0--2--3--2--0--2--0--5--3--2--0--|-2--0--2--3--2--0--2--0--|
                                                                        
                          2.                                            
|----------------------||-------------------------|--------------------|
|---------------------o||-------------------------|--------------------|
|----------2----------o||-------------------------|--------------------|
|----3--4-----5--4--3--||--2--0--2--3--2--0--2--0-|----2---------------|
                                                                        
                                                                        

h = hammeron                    Judy Letostak                         
t = tap (right hand)            The Music Shop BBS (619)423-4970 24hrs
~ = vibrato                     * = picked harmonic
bf = bend full                  tr = trill
rb = release bend               p.s. = pick scrape
dive = dive with bar            b = bend / step written over note
The Music Shop BBS (619)423-4970  24hrs
will take anything that can be put on a computer...Lyrics, pictures, sound
Also have a menu for band to put up Biographies, reviews of shows, demos,
gig advertisements, and you can sell your demo/CD here as well...And it's
absolutely FREE!






Comments


Popular Slayer tabs & chords
Deaths Head Bass Tabs
Expendable Youth Bass Tabs
Filler 3 Bass Tabs
Gemini Bass Tabs
Memories Of Tomorrow Bass Tabs
War Zone Bass Tabs
At Dawn They Sleep Tabs
Mind Control Tabs
Postmortem 2 Tabs
Unit 731 Tabs


Song lyrics



↑ Back to top | Tablatures and chords are parodies/interpretations of the original songs. You may use it for private study, scholarship, research or language learning purposes only
© 2014 AZChords.com Contact us | Privacy policy | DMCA | Add/correct tabs | Request tabs | Top 50 tabs