» » »

Screaming From The Sky Tabs (ver.1)

Artists:  A B C D E F G H I J K L M N O P Q R S T U V W X Y Z # 

Screaming From The Sky Tabs (ver.1)

Slayer
Rating:
0/5 (0 votes)

Hard to play? Try these video lessons and learn fast.
                SLAYER




DROPPED D TUNING


    --------------repeat 8 times----------------------
eb:|-----------------------|--------------------------|----------------------|
Bb:|-----------------------|--------------------------|----------------------|
Gb:|-----------------------|---this-part-changes-with-some-pm-or-hammer-pull-|
Db:|-----------------------|--------------------------|----------------------|
Ab:|0-----1-----2-----3p2-3|-0-----1-----2------------|----------------------|
 D:|0-0-0-1-0-0-2-0-0-3p2-3|-0-0-0-1-0-0-2-0-0-2-3-2-0|----------------------|
  pm  . .   . .   . .          . .   . .   . .



:--------------|--------|-----------------------------|
:repeat-4-times|--------|-----------------------------|
:--------------|--------|-----------------------------|
:--------------|--------|-----------------------------|
:--------------*--------|---------------------------0-|
:-10p9-10--6-7-|-10p9-10|-4-3-0-4-3-0-4-3-0-4-3-0-4-0-|
                        pm. . . . . . . . . . . . . .



                   ---------------repeat 8 times---------------------
:-----------------|-----------------------|---------------------------|
:-----------------|-----------------------|-this part-changes-with----|
:-----------------|-----------------------|--some-pm-or-hammer-pull---|
:-----------------|-----------------------|---------------------------|
:-9-8---------6-5-|0-----1-----2-----3p2-3|-0-----1-----2-------------|
:-----11-10-9-----|0-0-0-1-0-0-2-0-0-3p2-3|-0-0-0-1-0-0-2-0-0-2-3-2-0-|
                  pm . .   . .   . .




:--------------------------------------------------*---------|
:--------------------------------------------------*-4-times-|
:--------------------------------------------------*---------|
:--------------------------------------------------*---------|
:--------------------------0-----1-----2-----3p2-3-*---------|
:-4-3-0-4-3-0-4-3-0-4-3-0--0-0-0-1-0-0-2-0-0-3p2-3-*-4-3-0---|
pm. . . . . . . . . . . .    . .   . .   . .         . . .




:------------------------*-------*-----------------|
:------------------------*4-times*-----------------|
:------------------------*-------*-----------------|
:------------------------*-------*-----------------|
:0-----1-----2-----3p2-3-*-------*-9-8---------6-5-|
:0-0-0-1-0-0-2-0-0-3p2-3-*-4-3-0-*-----11-10-9-----|
 pm. .   . .   . .         . . .


*------------------repeat 8 times-----------------*
:-----------------------*-------------------------|-------------|
:-----------------------*-------------------------|-2-times-----|
:-----------------------*-this-changes------------|-------------|
:-----------------------*-------------------------|-------------|
:0-----1-----2-----3p2-3*0-----1-----2------------|-------------|
:0-0-0-1-0-0-2-0-0-3p2-3*0-0-0-1-0-0-2-0-0-2-3-2-0|-4-3-0-4-3-0-|
pm . .   . .   . .         . .   . .   . .          . . . . . .



 ----------------repeat 2 times-------------------
:------------------------|------------------------|
:------------------------|------------------------|
:------------------------|------------------------|
:------------------------|------------------------|
:0-----1-----2-----3p2-3-|------------------------|
:0-0-0-1-0-0-2-0-0-3p2-3-*-4-3-0-4-3-0-4-3-0-4-3-0|
pm . .   . .   . .         . . . . . . . . . . . .



  -----------
:----------------|
:----------------|
:1b-1-1-1-1-1-etc|
:----------------|
:----------------|
:----------------|





solo
:-------------|--------------------------------------------5~~~-|
:---6-7-9-7-6-|-6h7p6------------------------------7-7-6-6------|
:-7-----------|-------------------------------------------------|
:-------------|-------12\--7-7-6-6---------7-7-6-6--------------|
:-4-times-----|--------------------8-8-9-9----------------------|
:-------------|-------------------------------------------------|



:-4-5-7-4-5-4----------4-5-7-4-5-4---------5~~--5\-----------|
:-------------7-4-5-4--------------7-4-5-4-------------------|
:------------------------------------------------------------|
:------------------------------------------------------------|
:------------------------------------------------------------|
:------------------------------------------------------------|





:----------------*----------------------------------------------|
:--3-times-------*----------------------------------------------|
:----------------*----------------------------------------------|
:----------------*-----2-3-2-0--------------2-3-2-0-------------|
:-3-2------------*-3-2---------3-2h3-6-6-0----------3-2-3-1-1-1-|
:-3-2-4-3-0-4-3-0*-3-2-----------2h3-6-6-0------------2-3-1-1-1-|





:--------------------------------------------*--------------|
:--------------------------------------------*--------------|
:--------------------------------------------*--------------|
:--0-2-3-2-0-------------2-3-2-0-------------*--------------|
:0-----------3-2h3-6-6-0---------3-2-3-1-1-1-*--------------|
:0-------------2h3-6-6-0-----------2-3-1-1-1-*-10p9-10--6-7-|



 gt1
:---------------------------------------|
:---------------------------------------|
:---------------------------------------|
:---------------------------------------|
:0--9-8---------6-5--9-8---------9-8----|
:0------11-10-9----------11-10-9--------|




gt2
:----------------------------------------|
:----------------------------------------|
:----------------------------------------|
:----------------------------------------|
:-0-0-0-0-0-0-0-0-0-0-0-0-0-0-0-0-0------|
:-0-0-0-0-0-0-0-0-0-0-0-0-0-0-0-0-0-etc--|



play 2 times
:-------------------------------------------------|
:-------------------------------------------------|
:-------------------------------------------------|
:-------------------------------------------------|
:0-----1-----2-----3p2-3-0-----1-----2------------|
:0-0-0-1-0-0-2-0-0-3p2-3-0-0-0-1-0-0-2-0-0-3-2-3-0|
pm . .   . .   . .         . .   . .   . .


gt1                       play 6 times
:--------------------------------------------------|
:--------------------------------------------------|
:--------------------------------------------------|
:--------------------------------------------------|
:0-----1-----2-----3p2-3-0-----1-----2-------------|
:0-0-0-1-0-0-2-0-0-3p2-3-0-0-0-1-0-0-2-0-0-3-2-3-0-|
pm . .   . .   . .         . .   . .   . .



gt2            play 8 times
:-----------------------------|
:-----------------------------|
:-----------------------------|
:-----------------------------|
:-----------------------------|
:-10p9-10--6-7----------------|


gt1
:-----------------------------|
:-----------------------------|
:-----------------------------|
:-----------------------------|
:-3p2-3-----------------------|
:-3p2-3-----------------------|
gt2
:-----------------------------|
:-----------------------------|
:-----------------------------|
:-----------------------------|
:-----------------------------|
:-10p9-10---------------------|
            
Hard to play? Try these video lessons and learn fast. | Correct




comments powered by Disqus
↑ Back to top | Tablatures and chords are parodies/interpretations of the original songs. You may use it for private study, scholarship, research or language learning purposes only