» » »

Slayer, Jesus Saves Bass tabs (ver.1)

Artists:  A B C D E F G H I J K L M N O P Q R S T U V W X Y Z # 

Jesus Saves Bass tabs (ver.1)

Slayer Tabs
Rating:
0/5 (0 votes)
Jesus Saves  lessons Tabs too difficult? Try these video lessons and learn fast
                (1)
**********************************************************************
**********************************************************************


                        Jesus Saves - Slayer
                        ====================

Tune down 1/2 step (Eb,Ab,Db,Gb)

 140 bpm
|-----------------|-----------------|-----------------|-----------------|
|-----------------|-----------------|-----------------|-----------------|
|-----------------|-----------------|-----------------|-----------------|
|(6)--------------|(6)--------------|-0---------------|-----------------|
(from "altar of sacrifice")

|-----------------|-----------------|-----------------|-----------------||
|-----------------|-----------------|-----------------|-----------------||
|-----1-----------|-----1-----------|-----1-----------|-----2-------1---||
|-------------0---|-------------0---|-------------0---|-0-0-----0-0-----||

                                tr.
|-----------------|-----------------|-----------------|-----------------|
|-----------------|-------------1(2)|-----------------|-----------------|
|-----1---1-----1-|---1-----2\1-----|-----1---1-----1-|---2\1-----2-1---|
|-0-0---0---0-0---|-0---0-0---------|-0-0---0---0-0---|-0-----2-4-------|

                                tr.
|-----------------|-----------------|-----------------|-----------------||
|-----------------|-------------1(2)|-----------------|-----------------||
|-----1---1-----1-|---1-----2\1-----|-----1---1-----1-|-----2-------1---||
|-0-0---0---0-0---|-0---0-0---------|-0-0---0---0-0---|-0-0-----0-0-----||

|-----------------|-----------------|-----------------|-----------------|
|-----------------|-----------------|-----------------|-----------------|
|-----------------|-----------------|-----------------|-----------------|
|-0-000-0000000-00|-00000-0000000-00|-00000-0000000-00|-00000-0000000-00|

|-----------------|-----------------|-----------------|-----------------||
|-----------------|-----------------|-----------------|-----------------||
|-----------------|-----------------|-----------------|-----------------||
|-00000-0000000-00|-00000-0000000-00|-00000-0000000-00|-00000-0000000-00||

|-----------------|-----------------|-----------------|-----------------||
|-----------------|-----------------|-----------------|-----------------||
|-----------------|-----------------|-----------------|-----------------||
|-5-5-5-6-----6-6-|-9-9-9-8-----8-8-|-5-5-5-6-----6-6-|-9-9-9-8-8-8-8-8-||

 9/8                                      tr.
|----------------------|-------------------------|
|----------------------|-------------------------|
|-----8-7----8-7-11-10-|-----8-7---8-7-11-10(11)-|
|-0-0------0-----------|-0-0-----0---------------|

                                          tr.
|----------------------|-------------------------|
|----------------------|-------------------------|
|-----8-7----8-7-11-10-|-----8-7---8-7-11-10(11)-|
|-0-0------0-----------|-0-0-----0---------------|

                                          tr.
|----------------------|-------------------------|
|----------------------|-------------------------|
|-----8-7----8-7-11-10-|-----8-7---8-7-11-10(11)-|
|-0-0------0-----------|-0-0-----0---------------|

                                          tr.
|----------------------|-------------------------||
|----------------------|-------------------------||
|-----8-7----8-7-11-10-|-----8-7---8-7-11-10(11)-||
|-0-0------0-----------|-0-0-----0---------------||

 4/4
 210 bpm
|-----------------|-----------------|-----------------|-----------------|
|-----------------|-----------------|-----------------|-----------------|
|-----------------|-----------------|-----------------|-----------------|
|-0---------------|-----------------|-----------------|-----------------|

|-----------------|-----------------|-----------------|-----------------||
|-----------------|-----------------|-----------------|-----------------||
|-----------------|-----------------|-----------------|-----------------||
|-0000000000000000|-0000000000000000|-0000000000000000|-0000000000000000||

 verse 1
|-----------------|-----------------|-----------------|-----------------|
|-----------------|-----------------|-----------------|-----------------|
|-----------------|-----------------|-----------------|-----------------|
|-0000000030000000|-500000004-7-6---|-0000000030000000|-500000004-7-6---|

|-----------------|-----------------|-----------------|-----------------||
|-----------------|-----------------|-----------------|-----------------||
|-----------------|-----------------|-----------------|-----------------||
|-0000000030000000|-500000004-7-6---|-0000000030000000|-500000004-7-6---||

 chorus
|-----------------|-----------------|-----------------|-----------------|
|-----------------|-----------------|-----------------|-----------------|
|-----------------|-----------------|-----------------|-----------------|
|-0000530000005300|-000053005---6---|-0000530000005300|-000053005---6---|

|-----------------|-----------------||
|-----------------|-----------------||
|-----------------|-----------------||
|-0000530000005300|-000053005---6---||

|-----------------|-----------------|-----------------|-----------------||
|-----------------|-----------------|-----------------|-----------------||
|-----------------|-----------------|-----------------|-----------------||
|-0000000030000000|-500000004-7-6---|-0000000030000000|-500000004-7-6---||

 verse 2
|-----------------|-----------------|-----------------|-----------------|
|-----------------|-----------------|-----------------|-----------------|
|-----------------|-----------------|-----------------|-----------------|
|-0000000030000000|-500000004-7-6---|-0000000030000000|-500000004-7-6---|

|-----------------|-----------------|-----------------|-----------------||
|-----------------|-----------------|-----------------|-----------------||
|-----------------|-----------------|-----------------|-----------------||
|-0000000030000000|-500000004-7-6---|-0000000030000000|-500000004-7-6---||

 guitar solo I
|-----------------|-----------------|-----------------|-----------------|
|-----------------|-----------------|-----------------|-----------------|
|-----------------|-----------------|-----------------|-----------------|
|-4444444444445555|-4444444444445555|-4444444444445555|-8888888877777777|

|-----------------|-----------------|-----------------|-----------------||
|-----------------|-----------------|-----------------|-----------------||
|-----------------|-----------------|-----------------|-----------------||
|-4444444444445555|-4444444444445555|-4444444444445555|-8888888877777777||

 chorus
|-----------------|-----------------|-----------------|-----------------|
|-----------------|-----------------|-----------------|-----------------|
|-----------------|-----------------|-----------------|-----------------|
|-0000530000005300|-000053005---6---|-0000530000005300|-000053005---6---|

|-----------------|-----------------||
|-----------------|-----------------||
|-----------------|-----------------||
|-0000530000005300|-000053005---6---||

 guitar solo II
|-----------------|-----------------|-----------------|-----------------|
|-----------------|-----------------|-----------------|-----------------|
|-----------------|-----------------|-----------------|-----------------|
|-0000000033333333|-2222222266666666|-0000000033333333|-2222222288888888|

|-----------------|-----------------|-----------------|-----------------|
|-----------------|-----------------|-----------------|-----------------|
|-----------------|-----------------|-----------------|-----------------|
|-0000000033333333|-2222222266666666|-0000000033333333|-2222222288888888|

|-----------------|-----------------|-----------------|-----------------|
|-----------------|-----------------|-----------------|-----------------|
|-----------------|-----------------|-----------------|-----------------|
|-0000000033333333|-2222222266666666|-0000000033333333|-2222222288888888|

|-----------------|-----------------|-----------------|-----------------||
|-----------------|-----------------|-----------------|-----------------||
|-----------------|-----------------|-----------------|-----------------||
|-0000000033333333|-2222222266666666|-0000000033333333|-2222222288888888||

|-----------------|-----------------|-----------------|-----------------||
|-----------------|-----------------|-----------------|-----------------||
|-----------------|-----------------|-----------------|-----------------||
|-0---------------|-----------------|-0000000000000000|-0000000000000000||

|-----------------|-----------------|-----------------|-----------------||
|-----------------|-----------------|-----------------|-----------------||
|-----------------|-----------------|-----------------|-----------------||
|-0000000030000000|-500000004-7-6---|-0000000030000000|-500000004-7-6---||

 chorus
|-----------------|-----------------|-----------------|-----------------|
|-----------------|-----------------|-----------------|-----------------|
|-----------------|-----------------|-----------------|-----------------|
|-0000530000005300|-000053005---6---|-0000530000005300|-000053005---6---|

|-----------------|-----------------||
|-----------------|-----------------||
|-----------------|-----------------||
|-0000530000005300|-000053005---6---||

|-----------------|-----------------|-----------------||
|-----------------|-----------------|-----------------||
|-----------------|-----------------|-----------------||
|-5-----------6-5-|---------6-5-----|-----6-----------||

 guitar solo III
 228 bpm
|-----------------|-----------------|-----------------|-----------------|
|-----------------|-----------------|-----------------|-----------------|
|-----------------|-----------------|-----------------|-----------------|
|-6555555555555555|-6555555555555555|-6555555555555-5-|-6666666666666666|

|-----------------|-----------------|-----------------|-----------------|
|-----------------|-----------------|-----------------|-----------------|
|-----------------|-----------------|-----------------|-----------------|
|-6555555555555555|-6555555555555555|-6555555555555-5-|-6666666666666666|

|-----------------|-----------------|-----------------|-----------------|
|-----------------|-----------------|-----------------|-----------------|
|-----------------|-----------------|-----------------|-----------------|
|-6555555555555555|-6555555555555555|-6555555555555-5-|-6666666666666666|

|-----------------|-----------------|-----------------|-----------------|
|-----------------|-----------------|-----------------|-----------------|
|-----------------|-----------------|-----------------|-----------------|
|-6555555555555555|-6555555555555555|-6555555555555-5-|-6666666666666666|

|-----------------||
|-----------------||
|-----------------||
|-6---------------||
            

comments powered by Disqus
↑ Back to top | Slayer Bass for Jesus Saves. Lyrics for acoustic guitar and electric guitar. Tablatures and chords are parodies/interpretations of the original songs. You may use it for private study, scholarship, research or language learning purposes only