» » »

Slayer, In The Name Of God Tabs (ver.3)

Artists:  A B C D E F G H I J K L M N O P Q R S T U V W X Y Z # 

In The Name Of God Tabs (ver.3)

Slayer Tabs
 Rating:
4/5 (4 votes)
In The Name Of God lessons Tabs too difficult? Try these video lessons and learn fast
                -------------------------------------------
-------------------------------------------------
-------------------------------------------------
-------------------------------------------------
-2-1-0-1-0-2--0-3-2-0-1-1-0-2--0-3-2-0-3-3-3-----
-2-1-0-1-0-2--0-3-2-0-1-1-0-2--0-3-2-0-3-3-3-2---

Then u play the 4the fret barre chord for a while

back 2 verse

---------------
---------------
---------------
---------------
0-3-1-0-0-0----
0-3-1-0-0-0----   play for a while

play with vARiations and space between chords

----------------------
----------------------
----------------------
----------------------
--3-3---3-3---4-4-----
0-----0-----0---------
            
Submit corrections

comments powered by Disqus
↑ Back to top | Slayer Tabs for In The Name Of God. Lyrics for acoustic guitar and electric guitar. Tablatures and chords are parodies/interpretations of the original songs. You may use it for private study, scholarship, research or language learning purposes only