» » »

Slayer, In The Name Of God Tabs (ver.2)

Artists:  A B C D E F G H I J K L M N O P Q R S T U V W X Y Z # 

In The Name Of God Tabs (ver.2)

Slayer Tabs
 Rating:
4/5 (4 votes)
In The Name Of God lessons Tabs too difficult? Try these video lessons and learn fast
                Slayer
In The Name Of God
Diabolus In Musica
1998
Tuning:  It Can Be Played In Standard E Or Drop D (I Prefer Drop D)
Eb/D#
Ab
Db
Gb
Bb
Eb 
Key:
~=Finger Wami
\=Slide Down
/=Slide Up
*=Palm Mute
Intro
|-------------------------------------------------|    |---------------|
|-------------------------------------------------|    |---------------|
|-------------------------------------------------|    |---------------|
|--2-1-0--1-0-2-0-3-2-0--1-1-0-2-0-3-2-0-3-3-3----|    |-0-3-1-0-0-0---|
|--2-1-0--1-0-2-0-3-2-0--1-1-0-2-0-3-2-0-3-3-3----|    |-0-3-1-0-0-0---|
|--2-1-0--1-0-2-0-3-2-0--1-1-0-2-0-3-2-0-3-3-3-2--|    |-0-3-1-0-0-0---|(Repeat X4)
   * * *  * * * * * * *  * * * * * * * * * * *           
Verse Before Solo
|--------------------------|
|--------------------------|
|--------------------------|
|--------------------------|
|---3-3\---3-3\---4-4\-----|
|-0------0------0----------|(On The Slide Down, Slide Down To Zero, While Doing A
(If Your Playing In Drop D, Make The 0's Into 2's)                      Finger Wami)

solo 1 
|2-5-2--5-2-525252-52-5-2-5-2-5-2-5-2-5-2-5-2-5-2-5-2-5| 
|------------------------------------------------------| 
|------------------------------------------------------| 
|------------------------------------------------------| 
|------------------------------------------------------| 
|------------------------------------------------------| 
 
 
 
:2-5-2-5-2-/7~~~~-7-8---------------------7-8--11-12-11~~~-| 
:---------------------10-8------------7-8------------------| 
:--------------------------9-8~~~-8-9----------------------| 
:----------------------------------------------------------| 
:----------------------------------------------------------| 
:----------------------------------------------------------| 

Repeat The Riff's Ubove Except Solo

Interlude
|--------------------|
|--------------------|
|--------------------|
|--0-4-3-2--0-5-3-2--|
|--0-4-3-2--0-5-3-2--|
|--0-4-3-2--0-5-3-2--|

Interlude 2
|----------------| |---------------|
|----------------| |---------------|
|----------------| |---------------|
|-7\-------------| |-7\------------| 
|-5\-------------| |-5\--2-3-3-3-3-| 
|-5\--0-0-----00-| |-5\--0-1-1-1-1-| 
            
Submit corrections

comments powered by Disqus
↑ Back to top | Slayer Tabs for In The Name Of God. Lyrics for acoustic guitar and electric guitar. Tablatures and chords are parodies/interpretations of the original songs. You may use it for private study, scholarship, research or language learning purposes only